Oops, an error
Loading. Please wait.

Fertile Crescent bass

version 2
version 2

Whole song

Interactive

82 views 1 this week
no commentswrite comment
1 2 3 4 5
1 last vote to show rating
add to favorites
×
Save as Personal and add changes to this tab that will be seen only by you. Learn more ›
×
You can save this tab as Personal to edit and correct it or add notes. All changes will be seen only by you. Learn more »
launch autoscroll
font size
0
reset
guitar tuner
edit
Autoscroll
slow
fast
+/-
esc
set tempo
stop
Author
Difficulty
Song: Fertile Crescent
Artist: Bad Religion
Album: Generator
Genre: Melodic Hardcore Punk
Year: 1992

Hey guys! This is the bass tab of the song and I think it's really good. Fuck off, Fertile Crescent is the 
perfect Bad Religion' song, with her classic speed and melody mix and the politicized lyrics, and they
never play her at their shows.
Anyway, enjoy the Bad Religion!

Intro:

G:----------------------------------------------   ----------------------
D:-----------------------------5-555555-3-------   ----------------------
A:---1-111111-----------------------------5-3---   ---3-333333-----3-3---
E:------------3-3333333-333333------------------x1 ------------444-------x3

G:-----------------------------------------------
D:-----------------------------5-5555555-3-------
A:---1-111111------------------------------5-3---
E:------------3-3333333-333333-------------------x1

Verse:

G:----------------------   -----------------------
D:----------------------   -----------------------
A:---3-333333-----3-3---   ---1-111111------------
E:------------444-------x3 ------------3-333333---x1

G:----------------------   -----------------------------------------------
D:----------------------   -----------------------------5-5555555-3-------
A:---3-333333-----3-3---   ---1-111111------------------------------5-3---
E:------------444-------x3 ------------3-3333333-333333-------------------x1

Chorus:

G:----------------------------------------------------------------------------
D:-----------------------------------------------------------------5-555555---
A:---6-666666---------------------------6-666666------------------------------
E:------------6-666666-8-8888888-888888----------6-666666-8-888888------------x1

G:----------------------------------------------------------------------------------------------
D:-----------------------------------------------------------------5-555555---------------------
A:---6-666666-----------------------------------------------------------------------------------
E:------------6-666666-8-8888888-888888-4-444444-6-666666-3-333333----------4-444444-6-666666---x1

Post-Chorus:

G:----------------------   -----------------------
D:----------------------   -----------------------
A:---3-333333-----3-3---   ---1-111111------------
E:------------444-------x3 ------------3-333333---x1

Bridge:

G:----------------------   -----------------------
D:----------------------   -----------------------
A:---3-333333-----3-3---   ---1-111111------------
E:------------444-------x3 ------------3-333333---x1

G:----------------------   --------------------------------------------
D:----------------------   -----------------------------5-5555555555---
A:---3-333333-----3-3---   ---1-111111---------------------------------
E:------------444-------x3 ------------3-3333333-333333----------------x1

End:

G:----------------------   -------------------
D:----------------------   -------------------
A:---3-333333-----3-3---   ---1-1-1-1---------
E:------------444-------x3 -----------3-3-3---x1

The order is:
.Intro x1 (play after 5 seconds since the beginning of the song)
.Verse x1
.Chorus x1
.Post-Chorus x1
.Verse x1
.Chorus x1
.Post-Chorus x1
.Bridge x1
.Chorus x1
.End x1





Tab by: mdc_ivan





            
            
Suggest correction
Creating personal tab
Creating personal tab
You can edit any tab online and save it as your Personal.

You can edit, replace or remove any tab part or add personal notes – all changes will be seen only by you.

Personal tabs can be accessed anytime from any device, even offline.
Learn more »
Give kudos to tab author, rate the tab!
1 2 3 4 5
comments
print report bad tab
guest
You may want to rate the tab now too:
select rating
Wanna post a correction for this tab? Suggest correction