Oops, an error
Loading. Please wait.

Fuck Armageddon This Is Hell bass

version 1
version 1

Whole song

Interactive

3,865 views 9 this week
2 commentsread comments
1 2 3 4 5
x 5
add to favorites
×
Save as Personal and add changes to this tab that will be seen only by you. Learn more ›
×
You can save this tab as Personal to edit and correct it or add notes. All changes will be seen only by you. Learn more »
launch autoscroll
font size
0
reset
guitar tuner
edit
Autoscroll
slow
fast
+/-
esc
set tempo
stop
Author
BAND: BAD RELIGION
SONG: FUCK ARMAGEDDON... THIS IS HELL
TABBED BY: METAPLAYER22  (ssj_zayne12@hotmail.com)

RATE ME. BUT DONT STEAL ME!

Standard Tuning (EADG)

Intro w. Flanger
                                        _
G|-------------------------------------  |
D|-------------------------------------  |
A|-------------------------------------  |   x5
E|----0(x8)--------5(x8)---------------  |
                                        -      
Verse
                                        -
G|-------------------------------------  |
D|-------------------------------------  |
A|--7(x6)----5-4-----5-4---------------  |   x6
E|---------------5-------5-------------  |
                                        -
Pre Chorus
                                        -
G|-------------------------------------  |
D|-------------------------------------  |
A|--7(x6)--5(x6)--3(x3)--2(x3)--0(x6)--  |   x1
E|-------------------------------------  |
                                        -
Verse
                                        -
G|-------------------------------------  |
D|-------------------------------------  |
A|--7(x6)----5-4-----5-4---------------  |   x6
E|---------------5-------5-------------  |
                                        -

Pre Chorus 
                                        -
G|-------------------------------------  |
D|-------------------------------------  |
A|--7(x6)--5(x6)--3(x3)--2(x3)--0(x6)--  |   x6
E|-------------------------------------  |
                                        -

Pre Chorus/ Chorus
                                        -
G|-------------------------------------  |
D|-------------------------------------  |
A|--7(x6)--5(x6)--3(x3)--2(x3)--0(x6)--  |  x1
E|-------------------------------------  |
                                       -
G|-------------------------------------  |
D|-------------------------------------  |
A|--3(x3)--5(x3)--7(x6)----------------  |  x2
E|-------------------------------------  |
                                        -

Verse (Under Solo)
                                        -
G|-------------------------------------  |
D|-------------------------------------  |
A|--7(x6)----5-4-----5-4---------------  |   x6
E|---------------5-------5-------------  |
                                        -

Verse
                                        -
G|-------------------------------------  |
D|-------------------------------------  |
A|--7(x6)----5-4-----5-4---------------  |   x6
E|---------------5-------5-------------  |
                                        -

Pre Chorus 
                                        -
G|-------------------------------------  |
D|-------------------------------------  |
A|--7(x6)--5(x6)--3(x3)--2(x3)--0(x6)--  |   x1
E|-------------------------------------  |
                                        -

Verse
                                        -
G|-------------------------------------  |
D|-------------------------------------  |
A|--7(x6)----5-4-----5-4---------------  |   x6
E|---------------5-------5-------------  |
                                        -

Pre Chorus/ Chorus
                                        -
G|-------------------------------------  |
D|-------------------------------------  |
A|--7(x6)--5(x6)--3(x3)--2(x3)--0(x6)--  |  x1
E|-------------------------------------  |
                                       -
G|-------------------------------------  |
D|-------------------------------------  |
A|--3(x3)--5(x3)--7(x6)----------------  |  x5
E|-------------------------------------  |
                                        -


1st Tab Positive its 100% correct, if not email me

            
            
Suggest correction
Creating personal tab
Creating personal tab
You can edit any tab online and save it as your Personal.

You can edit, replace or remove any tab part or add personal notes – all changes will be seen only by you.

Personal tabs can be accessed anytime from any device, even offline.
Learn more »
comments
print report bad tab
2 comments total.
0 reply
markelhombre 10 Jan 22, 2016 11:02 PM

Certainly NOT 100% correct. The intro is wrong. Did you even play this with the record? The intro is A and D.

Intro:

G|-------------------------------------  |
D|------------------------------------- |
A|--------------5(8x)------------------ |
E|----5(8x)---------------------------- |


Ending of intro:
G|-------------------------------------  |
D|------------------------------------- |
A|------------------------------------- |
E|----5(8x)---3(8x)---0 (let ring)----- |


The end of the solo goes like:
G|---3p2------------------------  |
D|-------3p2-------------------- |
A|-----------3p2-0h2-3-3-------- |
E|------------------------------ |


Further, you counting is wrong. The parts are not played the amounts you mention.

But, it's a good start.

0 reply
markelhombre 10 Jan 22, 2016 11:04 PM

Just a bunch of words so i can give a 2 star rating. words words words words words words words

guest
You may want to rate the tab now too:
select rating
Wanna post a correction for this tab? Suggest correction