Oops, an error
Loading. Please wait.

Fuck Armageddon This Is Hell tab

version 2
version 2

Whole song

Interactive

4,809 views 1 this week
1 commentread comment
1 2 3 4 5
x 5
add to favorites
×
Save as Personal and add changes to this tab that will be seen only by you. Learn more ›
×
You can save this tab as Personal to edit and correct it or add notes. All changes will be seen only by you. Learn more »
launch autoscroll
font size
0
reset
how to read this tab
guitar tuner
edit
Autoscroll
slow
fast
+/-
esc
set tempo
stop
Fuck Armageddon This Is Hell
Jeff J. Munt
munt@freenet.calgary.ab.ca
Comments, corrections, etc. welcome.

intro
e----------------------------------------------------------------------------
B----------------------------------------------------------------------------
G-9-10-7-7----7---9-10-7-7----7----------------------------------------------
D----------10--------------10------------------------------------------------
A----------------------------------------------------------------------------
E----------------------------------------------------------------------------


Verse
e----------------------------------------------------------------------------
B----------------------------------------------------------------------------
G--9----7-----6---------------------9---7---5---3----2-----------------------
D--9----7-----6----7----------------9---7---5---3----2-----------------------
A--7----5-----4----7----------------7---5---3---1----0-----------------------
E------------------5---------------------------------------------------------


THE SOLO (by Tommy) :

e--0--slide to-0-0-0-0-0-----------------0--slide to-0-0-0-0-0--2-0--
B--3--slide to-5-5-5-5-5--3-2----3-2---3--slide to-5-5-5-5-5------2--
G----------------------------------2------2--------------------------
D--------------------------------------------------------------------
A--------------------------------------------------------------------
E--------------------------------------------------------------------

e--2-0----0--slide to-0-0-0-0-0--2-0--2-0---0--slide to-0-0-0-0-0--
B-------2-3--slide to-5-5-5-5-5------2-----2-3--slide to-5-5-5-5-5-
G------------------------------------------------------------------
D------------------------------------------------------------------
A------------------------------------------------------------------
E------------------------------------------------------------------


e-----------------------
B-----------------------
G-3-2-------------------
D------3-2----------2-3-
A-----------3-2-2-3-----
E-----------------------

Tommy said this is COMPLETELY right.  His email address is FarmerSOB@aol.com

            
            
Suggest correction
Creating personal tab
Creating personal tab
You can edit any tab online and save it as your Personal.

You can edit, replace or remove any tab part or add personal notes – all changes will be seen only by you.

Personal tabs can be accessed anytime from any device, even offline.
Learn more »
comments
print report bad tab
1 comment total.
0 reply
markelhombre 10 Jan 22, 2016 10:23 PM

Well, Tommy was wrong.
The end of the solo at 1.51 goes like this:

e-----------------------
B-----------------------
G-3p2-------------------
D------3p2--------------
A-----------3p2-0h2-3-3-
E-----------------------

guest
You may want to rate the tab now too:
select rating
Wanna post a correction for this tab? Suggest correction