Oops, an error
Loading. Please wait.

Fuck Armageddon This Is Hell Tab

version 3
version 3

Whole song

Interactive

430 views 3 this week
1 commentread comment
1 2 3 4 5
please rate
add to favorites
launch autoscroll
font size
0
reset
how to read this tab
guitar tuner
Autoscroll
slow
fast
+/-
esc
set tempo
stop
Help us to improve Ultimate-Guitar.com Take our survey!
×
Author
Difficulty
novice
Artist: Bad Religion
Song: Fuck Armageddon... This is Hell!
Album: How Could Hell be Any Worse?
Track No: 5
Released: 2004 Epitaph Records
Written By: Dr. Greg Graffin
Difficulty: Novice to Intermediate
Tuning: Standard
----------------------------------------

Bass Intro                                        
(Flanger)
      x2 Before the guitar comes in                 *SONG ORDER*  
G|-------------------------------------|             ----------
D|-------------------------------------|            Bass Intro x2
A|--------(x8)-------------(x8)--------|           Guitar Intro x1
E|---0-0-0-0-0-0-0-0-5-5-5-5-5-5-5-5---|            Main Riff x6
                                                   Second Riff x1
                                                    Main Riff x3
Guitar Intro                                       Second Riff x1
(Clean)                                             Main Riff x3
         x4---> then--->  let ring                 Second Riff x1
e|----------------------|----------|               Chorus Riff x4
B|----------------------|----------|                  Solo x1
G|---9~-10~-7~-7----7---|----9~----|                Main Riff x5
D|---------------10-----|----------|               Second Riff x1
A|----------------------|----------|                Main Riff x3
E|----------------------|----------|               Second Riff x1
                                                   Chorus Riff x5

Main Riff
(Distortion)*
e|--------------------------------|                    
B|--------------------------------|                    *KEY*
G|---9-9-9--9-9-9--7-6----7-6-----|                     ---
D|---9-9-9--9-9-9--7-6-7--7-7-7---|                 -~- Let Ring
A|---7-7-7--7-7-7--5-4-7--5-4-7---|                 -/- Slide Up
E|---------------------5------5---|
 There's people who say I'm no good


Second Riff
(Same effect as main riff)
e|------------------------------------------------------------|
B|------------------------------------------------------------|
G|---9-9-9--9-9-9--7-7-7--7-7-7--5-5-5--3-3-3--2-2-2--2-2-2---|
D|---9-9-9--9-9-9--7-7-7--7-7-7--5-5-5--3-3-3--2-2-2--2-2-2---|
A|---7-7-7--7-7-7--5-5-5--5-5-5--3-3-3--1-1-1--0-0-0--0-0-0---|
E|------------------------------------------------------------|
    How could hell be any worse? Life alone is such a curse


Chorus Riff
(Same effect as main riff)
e|--------------------------------|
B|--------------------------------|
G|---5-5-5--7-7-7--9-9-9--9-9-9---|
D|---5-5-5--7-7-7--9-9-9--9-9-9---|
A|---3-3-3--5-5-5--7-7-7--7-7-7---|
E|--------------------------------|
    Fuck armageddon this is hell!

Solo
(Same effect as main riff)
e|---0/0-0-0-0-0-0---------------0/0-0-0-0-0-0--2-0---2-0-----|
B|---3/5-5-5-5-5-5--3-2---3-2----3/5-5-5-5-5-5------2-----2---|
G|----------------------2-----2-------------------------------|
D|------------------------------------------------------------|
A|------------------------------------------------------------|
E|------------------------------------------------------------|

e|---0/0-0-0-0-0-0--2-0---2-0----0/0-0-0-0-0-0------------------------|
B|---3/5-5-5-5-5-5------2-----2--3/5-5-5-5-5-5------------------------|
G|----------------------------------------------3-2-------------------|
D|--------------------------------------------------3-2---------2-3---|
A|------------------------------------------------------3-2-2-3-------|
E|--------------------------------------------------------------------|


Solo Backing
(Same effect as main riff)
              x3-----> then---> play it without the end bit
e|--------------------------------|------------------|
B|--------------------------------|------------------|
G|---9-9-9--9-9-9--7-6----7-6-----|---9-9-9--9-9-9---|
D|---9-9-9--9-9-9--7-6-7--7-7-7---|---9-9-9--7-7-7---|
A|---7-7-7--7-7-7--5-4-7--5-4-7---|---7-7-7--7-7-7---|
E|---------------------5------5---|------------------|
Suggest correction
What's this?
You can suggest a correction to this tab. Community and Mods will review your correction and vote to approve or reject it.
comments
We did not receive enough feedback on this tab! Please rate:
print report bad tab
1 2 3 4 5
1 comment total.
0 reply
markelhombre 20 wrote on January 23 2016, 03:58 am

Very nice tab!
I believe the end of the solo goes like this:


e-----------------------
B-----------------------
G-3p2-------------------
D------3p2--------------
A-----------3p2-0h2-3-3-
E-----------------------

guest
You may want to rate the tab now too:
select rating
Please do not post tabs as comments. Select "correction" instead!