Oops, an error
Loading. Please wait.

Fuck Armageddonthis Is Hell Tab

version 1
version 1

Whole song

Interactive

2,880 views 6 this week
no commentswrite comment
1 2 3 4 5
accurate
x 3
add to favorites
launch autoscroll
font size
0
reset
how to read this tab
guitar tuner
Autoscroll
slow
fast
+/-
esc
set tempo
stop
Help us to improve Ultimate-Guitar.com Take our survey!
×
Author
Difficulty
intermediate
BAND: BAD RELIGION
SONG: FUCK ARMAGEDDON... THIS IS HELL
TABBED BY: METAPLAYER22  (ssj_zayne12@hotmail.com)

RATE ME. BUT DONT STEAL ME!

Standard Tuning (EADGBe)

Intro

e------------------------------------------------------|
B-------5-6-3--3-1-3-----------------------------------|
G------------------------------------------------------|
D------------------------------------------------------|
A------------------------------------------------------|
E------------------------------------------------------|


Verse

e-------------------------------------------------------|
B-------------------------------------------------------|
G---9------------7--6-------7--6------------------------|
D---9--(x6)------7--6--7----7--6--7---------------------|
A---7------------5--4--7----5--4--7---------------------|
E----------------------5----------5---------------------|


Pre-Chorus

e--------------------------------------------------------|
B--------------------------------------------------------|
G---9--------7--------5--------4--------2----------------|
D---9--(x6)--7--(x6)--5--(x3)--4--(x3)--2--(x6)----------|
A---7--------5--------3--------2--------0----------------|
E--------------------------------------------------------|


Chorus

e--------------------------------------------------------|
B--------------------------------------------------------|
G---5---------7---------9--------------------------------|
D---5--(x3)---7--(x3)---9--(x6)--------------------------|
A---3---------5---------7--------------------------------|
E--------------------------------------------------------|


Solo

e--------------------------------------------------------|
B---3/5--5-5-5-5-5-5---3-2----3-2------------------------|
G--------------------------3------3----------------------|
D--------------------------------------------------------|
A--------------------------------------------------------|
E--------------------------------------------------------|

e----------------------2-0----2-0------------------------|
B---3/5--5-5-5-5-5-5-------2------2----------------------|
G--------------------------------------------------------|
D--------------------------------------------------------|
A--------------------------------------------------------|
E--------------------------------------------------------|

e----------------------2-0----2-0------------------------|
B---3/5--5-5-5-5-5-5-------2------2-----3/5--5-5-5-5-5-5-|
G--------------------------------------------------------|
D--------------------------------------------------------|
A--------------------------------------------------------|
E--------------------------------------------------------|

e--------------------------------------------------------|
B--------------------------------------------------------|
G-3-2----------------------------------------------------|
D-----3-2------------2---3-------------------------------|
A---------3-2---2-3--------------------------------------|
E--------------------------------------------------------|


Intro x 5 (End of 5th time, finish on 5th fret of B string and let ring)
Verse x 6
Pre-Chorus x 1
Verse x 6
Pre-Chorus x 2
Chorus x 2
Solo x 1
Verse x 6
Pre-Chorus x 1
Verse x 6
Pre-Chorus x 1
Chorus x 5

its 100% correct, if not email me
Suggest correction
Give kudos to tab author, rate the tab!
1 2 3 4 5
comments
print report bad tab
guest
You may want to rate the tab now too:
select rating
Please do not post tabs as comments. Select "correction" instead!