Oops, an error
Loading. Please wait.

Honest Goodbye tab

version 3
version 3

Whole song

Interactive

5,901 views 9 this week
1 commentread comment
1 2 3 4 5
x 6
add to favorites
×
Save as Personal and add changes to this tab that will be seen only by you. Learn more ›
×
You can save this tab as Personal to edit and correct it or add notes. All changes will be seen only by you. Learn more »
launch autoscroll
font size
0
reset
how to read this tab
guitar tuner
edit
Autoscroll
slow
fast
+/-
esc
set tempo
stop
Difficulty
-------------------------------------------------------------------------------
                             HONEST GOODBYE - Bad Religion
-------------------------------------------------------------------------------

Tabbed by: Jonathan Brown

Email: familyguyantiflag@yahoo.com

Tuning: Standard

Intro solo:

e|----------------------|----------------------|-----------------------------|
B|----------------------|----------------------|-----------------------------|
G|----------------------|----------------------|-----------------------------|
D|--6b7b6--4-4--7-6--9-7|--6b7b6--4-4--7-6--9-7|-6b7b6--4-4--7-6----4--------|
A|----------------------|----------------------|------------------4----------|
E|----------------------|----------------------|-----------------------------|

e|---------------------------------------------------------------------------|
B|---------------------------------------------------------------------------|
G|---------------------------------------------------------------------------|
D|--6b7b6--4--4-7-9-7-6-7----6b7b6-------------------------------------------|
A|---------------------------------------------------------------------------|
E|---------------------------------------------------------------------------|

Intro guitar (x2):

e|---------------------------------------------------------------------------|
B|---------------------------------------------------------------------------|
G|--7-7-7-7--6-6-6-6-----------2-2-2-2--7-7-7-7--9-9-9-9-----------6-6-6-6---|
D|--7-7-7-7--6-6-6-6--4-4-4-4--2-2-2-2--7-7-7-7--9-9-9-9--7-7-7-7--6-6-6-6---|
A|--5-5-5-5--4-4-4-4--4-4-4-4--0-0-0-0--5-5-5-5--7-7-7-7--7-7-7-7--4-4-4-4---|
E|--------------------2-2-2-2-----------------------------5-5-5-5------------|

Verse:

e|---------------------------------------------------------------------------|
B|---------------------------------------------------------------------------|
G|--7-7-7-7--6-6-6-6---------------------------------------------------------|
D|--7-7-7-7--6-6-6-6--4-4-4-4--3-3-3-3---------------------------------------|
A|--5-5-5-5--4-4-4-4--4-4-4-4--3-3-3-3---------------------------------------|
E|--------------------2-2-2-2--1-1-1-1---------------------------------------|

Play that x4 and then play:

e|---------------------------------------------------------------------------|
B|---------------------------------------------------------------------------|
G|--7-7-7-7--6-6-6-6---------------------------------------------------------|
D|--7-7-7-7--6-6-6-6--4-4-4-4--2-2-2-2---------------------------------------|
A|--5-5-5-5--4-4-4-4--4-4-4-4--2-2-2-2---------------------------------------|
E|--------------------2-2-2-2--0-0-0-0---------------------------------------|

Chorus (x2):

e|-------------------------------------|-------------------------------------|
B|-------------------------------------|-------------------------------------|
G|--7-7-7-7--6-6-6-6-----------2-2-2-2-|-7-7-7-7--9-9-9-9-----------6-6-6-6--|
D|--7-7-7-7--6-6-6-6--4-4-4-4--2-2-2-2-|-7-7-7-7--9-9-9-9--7-7-7-7--6-6-6-6--|
A|--5-5-5-5--4-4-4-4--4-4-4-4--0-0-0-0-|-5-5-5-5--7-7-7-7--7-7-7-7--4-4-4-4--|
E|--------------------2-2-2-2----------|-------------------5-5-5-5-----------|


"Whooaaa oohhh":

e|-------------------------------------|-------------------------------------|
B|-------------------------------------|-------------------------------------|
G|--7-7-7-7--9-9-9-9-----------6-6-6-6-|--7-7-7-7--9-9-9-9-----------6-6-6-6-|
D|--7-7-7-7--9-9-9-9--7-7-7-7--6-6-6-6-|--7-7-7-7--9-9-9-9--7-7-7-7--6-6-6-6-|
A|--5-5-5-5--7-7-7-7--7-7-7-7--4-4-4-4-|--5-5-5-5--7-7-7-7--7-7-7-7--4-4-4-4-|
E|--------------------5-5-5-5----------|--------------------5-5-5-5----------|

e|-------------------------------------|-------------------------------------|
B|-------------------------------------|-------------------------------------|
G|--7-7-7-7--6-6-6-6-----------2-2-2-2-|-7-7-7-7--9-9-9-9-----------6-6-6-6--|
D|--7-7-7-7--6-6-6-6--4-4-4-4--2-2-2-2-|-7-7-7-7--9-9-9-9--7-7-7-7--6-6-6-6--|
A|--5-5-5-5--4-4-4-4--4-4-4-4--0-0-0-0-|-5-5-5-5--7-7-7-7--7-7-7-7--4-4-4-4--|
E|--------------------2-2-2-2----------|-------------------5-5-5-5-----------|

That's it.  For the ending of the song, play the intro solo 
over the "Whoooa oohhh's".  End on A.



| /  slide up
| \  slide down
| h  hammer-on
| p  pull-off
| ~  vibrato
| +  harmonic
| x  Mute note
| b  Bend string
===============================================================================

            
            
Suggest correction
Creating personal tab
Creating personal tab
You can edit any tab online and save it as your Personal.

You can edit, replace or remove any tab part or add personal notes – all changes will be seen only by you.

Personal tabs can be accessed anytime from any device, even offline.
Learn more »
comments
print report bad tab
1 comment total.
0 reply
Seanith 37 Jul 24, 2009 08:52 AM

A little tip, for the intro riff, its easier to play the 9th fret on the A string rather than moving all the way back up to the 4th fret on the D string. Same note. Just need to use your pinky :) Also the "high" note the 2nd time its played is easier done with the 4th fret on the G string. This way you don't have to move your hands at all.

guest
Wanna post a correction for this tab? Suggest correction