Oops, an error
Loading. Please wait.
We have an official Infected tab made by UG professional guitarists. Check out the tab »
×

Infected bass

version 1
version 1

Whole song

  • Adds timing, as well as better labels all of the p... Show more
  • Transcribed from Rocksmith, 100% accurate.

Interactive

109 views 3 this week
no commentswrite comment
1 2 3 4 5
1 last vote to show rating
add to favorites
×
Save as Personal and add changes to this tab that will be seen only by you. Learn more ›
×
You can save this tab as Personal to edit and correct it or add notes. All changes will be seen only by you. Learn more »
launch autoscroll
font size
0
reset
guitar tuner
backing track
0:00
0:00
edit
Autoscroll
slow
fast
+/-
esc
set tempo
stop
About this tab version
Adds timing, as well as better labels all of the parts of the songs. There were a number of changes made throughout the song that are different from the previous two versions. Was this info helpful? Yes No
Bad Religion - Infected

Tabbed by: Ash 
email: burdickash@gmail.com

Tuning: Drop D
Time signature: 4|4

Intro
G|-----------------|-----------------|
D|-----------------|-----------------|
A|---------------0-|-1-1-1-2-3-3-3-1-| x 7
D|-5-5-5-0-1-1-1---|-----------------|

G|-----------------|-----------------|
D|-----------------|-----------------|
A|---------------0-|-1-1-1-0---------| 
D|-5-5-5-0-1-1-1---|---------3-3-3-3-|

Verse I
G|-----------------|-----------------|
D|-----------------|-----------------|
A|---------------0-|-1-1-1-2-3-3-3-1-| x 3
D|-5-5-5-0-1-1-1---|-----------------|

G|-----------------|------------------|
D|-----------------|------------------|
A|---------------0-|-1-1-1-0----------| 
D|-5-5-5-0-1-1-1---|---------3-3/15\3-|

"Let's talk about nothing"
G|-----------------|----------------|-----------------|-----------------|
D|-----------------|----------------|-----------------|-----------------|
A|-----------------|-------1---1----|---------6-6-6-5-|--------6-6-6-5--|
D|-5-5-5-6---6-----|-1-1-1----------|-5-5-5-5---------|--5-5-5----------|

G|-----------------|----------------|---------------------|
D|-----------------|----------------|---------------------|
A|-----------------|----------------|---------------------|
D|-5-5-5-6---6\----|-1-1-1-2---2----|-2---2--/14-14-14-14-|

Chorus
G|-----------------|-----------------|-----------------|----------------|
D|-----------------|-----------------|-----------------|----------------|
A|---------------0-|-1-1-1-0---0-1-3-|-----------------|----------------| x 2
D|-5-5-5-0-1-1-1---|---------3-------|-5---5-5-6---6\--|--1-1-1-3---3---|

G|-----------------|-----------------|
D|-----------------|-----------------|
A|-----------------|-----------------|
D|-5-5-5-5-5-5-5-5-|-6-6-6-6-6-------|

Verse II
G|-----------------|-----------------|
D|-----------------|-----------------|
A|---------------0-|-1-1-1-2-3-3-3-1-| x 3
D|-5-5-5-0-1-1-1---|-----------------|

G|-----------------|------------------|
D|-----------------|------------------|
A|---------------0-|-1-1-1-0----------| 
D|-5-5-5-0-1-1-1---|---------3-3/15\3-|

"Let's talk about nothing"
G|-----------------|----------------|-----------------|-----------------|
D|-----------------|----------------|-----------------|-----------------|
A|-----------------|-------1---1----|---------6-6-6-5-|--------6-6-6-5--|
D|-5-5-5-6---6-----|-1-1-1----------|-5-5-5-5---------|--5-5-5----------|

G|-----------------|----------------|---------------------|
D|-----------------|----------------|---------------------|
A|-----------------|----------------|---------------------|
D|-5-5-5-6---6\----|-1-1-1-2---2----|-2---2--/14-14-14-14-|

Chorus II
G|-----------------|-----------------|-----------------|----------------|
D|-----------------|-----------------|-----------------|----------------|
A|---------------0-|-1-1-1-0---0-1-3-|-----------------|----------------| x 2
D|-5-5-5-0-1-1-1---|---------3-------|-5---5-5-6---6\--|--1-1-1-3---3---|

G|-----------------|-----------------|
D|---------8-8-8-7-|-5-5-5-3-5-3-----|
A|-------5---------|-------------5-3-|
D|-5-7-8-----------|-----------------|

Bridge (notes spaced out for easier reading)
G|---------------------|-------------------------|
D|---------------------|-------------------------|
A|-0-----2--0----------|-0---0-0-2---0-----------| x 2
D|-------------2---4---|-----------------2---4---|

G|-----------------|-----------------|-----------------|-----------------|
D|-----------------|-----------------|-----------------|-----------------|
A|-----------------|-----------------|-----------------|-----------------|
D|-2---2-0-3---2---|-2-2-0-3----2----|-3-3-3-3-3-3-3-3-|-5-5-5-5-5-5-5-5-|

Guitar Solo
G|-----------------|-----------------|
D|-----------------|-----------------|
A|-0-0-0-1-1-1-1-1-|-1---------------| x 8 
D|-----------------|---3-3-3-5-5-5-5-|

G|-2-2-2-3-3-3-3-3-|-3---------------|
D|-----------------|---3-3-3-5-5-5-5-|
A|-----------------|-----------------|
D|-----------------|-----------------|

Final Chorus 
G|-----------------|-----------------|
D|-----------------|-----------------|
A|-0-0-0-0---------|-3-3-3-3---------|
D|---------3-3-3-3-|---------5-5-5-5-|

G|-----------------|-----------------|----------------|-----------------|
D|-----------------|-----------------|----------------|-----------------|
A|-0-0-0-0-1-1-1-1-|-----------------|0-0-0-0-1-1-1-1-|-----------------|
D|-----------------|-3-3-3-3-5-5-5-5-|----------------|-3-3-3-3-5-5-5-5-|

G|-----------------|-----------------|
D|-----------------|-----------------|
A|-0-0-0-0---------|-3-3-3-3---------|
D|---------3-3-3-3-|---------5-5-5-5-|

G|-----------------|-----------------|----------------|-----------------|
D|-----------------|-----------------|----------------|-----------------|
A|-0-0-0-0-1-1-1-1-|-----------------|0-0-0-0-1-1-1-1-|-----------------|
D|-----------------|-3-3-3-3-5-5-5-5-|----------------|-3-3-3-3-5-5-5-5-|

G|-----------------|-----------------|
D|-----------------|-----------------|
A|-0-0-0-0---------|-3-3-3-3---------|
D|---------3-3-3-3-|---------5-5-5-5-|

G|-----------------|-----------------|----------------|-----------------|
D|-----------------|-----------------|----------------|-----------------|
A|-0-0-0-0-1-1-1-1-|-----------------|0-0-0-0-1-1-1-1-|-----------------|
D|-----------------|-3-3-3-3-5-5-5-5-|----------------|-3-3-3-3-5-5-5-5-|

G|-----------------|-----------------|
D|-----------------|-----------------|
A|-0-0-0-0---------|-3-3-3-3---------|
D|---------3-3-3-3-|---------5-5-5-5-|

G|-----------------|
D|-----------------|
A|-0~--------------|
D|-----------------|

Happy playing!

************************************

| /   Slide up
| \   Slide down
| ~   Vibrato

************************************
Suggest correction
Creating personal tab
Creating personal tab
You can edit any tab online and save it as your Personal.

You can edit, replace or remove any tab part or add personal notes – all changes will be seen only by you.

Personal tabs can be accessed anytime from any device, even offline.
Learn more »
Give kudos to tab author, rate the tab!
1 2 3 4 5
comments
print report bad tab
guest
You may want to rate the tab now too:
select rating
Wanna post a correction for this tab? Suggest correction