Oops, an error
Loading. Please wait.

New America Tab

version 1
version 1

Whole song

Interactive

2,924 views 12 this week
no commentswrite comment
1 2 3 4 5
excellent!
x 2
add to favorites
launch autoscroll
font size
0
reset
how to read this tab
guitar tuner
Tab Pro tools
  • play this tab
  • loop segment
  • change instrument
  • show fretboard
  • metronome
Autoscroll
slow
fast
+/-
esc
set tempo
stop
Contributor
-------------------------------------------------------------------------------
                        THE NEW AMERICA - Bad Religion
-------------------------------------------------------------------------------

Tabbed by: danc446
Email: danc446@yahoo.com

Tuning: E Standard

INTRO 
e|----------------------------------------------------------------------------|
B|----------------------------------------------------------------------------|
G|--10-10-10-10-10--8------------8----10-10-10-10-10--8------------8-8-8-8----|
D|--10-10-10-10-10--8--8-8-8-8-8-8----10-10-10-10-10--8--8-8-8-8-8-8-8-8-8----|
A|---8--8--8--8--8--6--8-8-8-8-8-6-----8--8--8--8--8--6--8-8-8-8-8-6-6-6-6----|
E|---------------------6-6-6-6-6-------------------------6-6-6-6-6------------|

INTRO RIFF
e|--------------------------------------------------|
B|---10-10-10-10-11-10-11----11-11-11-11-13-11-13---|
G|---10-10-10-10-10-10-10----10-10-10-10-10-10-10---|
D|--------------------------------------------------|
A|--------------------------------------------------|
E|--------------------------------------------------|

VERSE       Alternatively pick the triplets; repeat as needed.
e|---------------------------------------------------------------------------|
B|---------------------------------------------------------------------------|
G|-------------------------------5-5-5--5-5-5--5-5-5--5-5-5------------------|
D|---3-3-3--3-3-3--3-3-3--3-3-3--5-5-5--5-5-5--5-5-5--5-5-5------------------|
A|---3-3-3--3-3-3--3-3-3--3-3-3--3-3-3--3-3-3--3-3-3--3-3-3------------------|
E|---1-1-1--1-1-1--1-1-1--1-1-1----------------------------------------------|

VERSE RIFF     Play over the VERSE, this is clean.
e|----1-------------1--------------------0-0-0---|
B|----3----1---1----3----1---1-------1---1-1-1---|
G|----3----2---2----3----2---2---0---2---0-0-0---|
D|----3----3---3----3----3---3---0---3---2-2-2---|
A|----1----3---3----1----3---3---x---3---3-3-3---|
E|---------------------------------------3-3-3---|

VERSE PART TWO, or possibly PRECHORUS       (We are just a step away...)
e|-----------------------------------------------|
B|-----------------------------------------------|
G|--------------10-10-10-10-10-------------------|
D|---8-8-8-8-8--10-10-10-10-10--10-10-10-10-10---|
A|---8-8-8-8-8---8--8--8--8--8--10-10-10-10-10---|
E|---6-6-6-6-6-------------------8--8--8--8--8---|

CHORUS
e|-------------------------------------------------------------|
B|---------------------------------------------5-5-5-5-5-5-5---|
G|----3-3-3-3-3-3-----------------5-5-5-5-5-5--5-5-5-5-5-5-5---|
D|----3-3-3-3-3-3---3-3-3-3-3-3---5-5-5-5-5-5--5-5-5-5-5-5-5---|
A|----1-1-1-1-1-1---3-3-3-3-3-3---3-3-3-3-3-3--3-3-3-3-3-3-3---|
E|------------------1-1-1-1-1-1----------------3-3-3-3-3-3-3---|

BRIDGE   (We don't have to be...)
e|----------------------------------------------------------|
B|----------------------------------------------------------|
G|--------------------------------5-5-5-5-5-----------------|
D|----8-8-8-8-8--\\\--3-3-3-3-3---5-5-5-5-5---5-5-5-5-5-5---|
A|----8-8-8-8-8--\\\--3-3-3-3-3---3-3-3-3-3---3-3-3-3-3-3---|
E|----6-6-6-6-6--\\\--1-1-1-1-1---------------3-3-3-3-3-3---|

SOLO!!!
e|---------------------------------------------------------------------------|
B|----11--10-10--10-10-11--11-11-10--10--------13::---11--10-10-8--10-11-10--|
G|----10:::::::::::::::::::::::::::----10--9-12-------10---------10----------|
D|---------------------------------------10----------------------------------|
A|---------------------------------------------------------------------------|
E|---------------------------------------------------------------------------|

e|-----12-----13-----15-----13-----12~~~-------------------------------------|
B|--13-----13-----13-----13-----13-------------------------------------------|
G|---------------------------------------------------------------------------|
D|---------------------------------------------------------------------------|
A|---------------------------------------------------------------------------|
E|---------------------------------------------------------------------------|

| /  slide up
| \  slide down
| h  hammer-on
| p  pull-off
| ~  vibrato
| +  harmonic
| x  Mute note
| :  LET RING

===============================================================================
comments
We did not receive enough feedback on this tab! Please rate:
print report bad tab
1 2 3 4 5
I want to post or [tab]
guest
You may want to rate the tab now too:
select rating
Please do not post tabs as comments. Select "correction" instead!