Oops, an error
Loading. Please wait.

New Leaf bass

version 2
version 2

Whole song

31 views 1 this week
no commentswrite comment
1 2 3 4 5
1 last vote to show rating
add to favorites
×
Save as Personal and add changes to this tab that will be seen only by you. Learn more ›
×
You can save this tab as Personal to edit and correct it or add notes. All changes will be seen only by you. Learn more »
launch autoscroll
font size
0
reset
guitar tuner
edit
Autoscroll
slow
fast
+/-
esc
set tempo
stop
Author
Difficulty
Song: New Leaf
Artist: Bad Religion 
Album: Back To The Known
Genre: Hardcore Punk
Year: 1985

Hey guys! This is the bass tab of the song and it's 100% correct. I know there was another tab of
the song on UG, but it really, really sucks. This is perfect.
Anyway, enjoy the Bad Religion!

Intro: 

G:----------------------------
D:----------------------------
A:---555-0------------555-7---
E:----------------------------

Verse:

G:---------------------------------------
D:---------------------------------------
A:---555-0-0000000000-555-7-7777777777---
E:---------------------------------------

Chorus:

G:-----------------------------------------------------------------------------------
D:-----------------------------------------------------------------------------------
A:---3-33----------------------3-33-----5-55555555555555-3-33------------------------
E:--------333-5-55555555555555------333-----------------------333-5-55555555555555---x1

G:--------------------------
D:--------------------------
A:---3-333333---------------
E:------------3-333333-0~---x1

Bridge:

G:---------------------------------------------------------------------
D:---------------------------------------------------------------------
A:---555-0------------555-7------------555-0--------555-777777777777---
E:---------------------------------------------------------------------x1

G:---------------------------------------
D:---------------------------------------
A:---555-0-0000000000-555-7-7777777777---
E:---------------------------------------x2

G:---------------------------------------   --------------------------------------------
D:---------------------------------------   --------------------------------------------  
A:---555-0-000000-3-3-3------------------   ---555-0-000000-3-333333--------------------   
E:----------------------3-333333-5-555---x2 -------------------------3-33333333-5-555---x2 

G:---------
D:---------
A:---555---
E:---------x1

End Chorus:

G:-------------------------------------------5-7-5-------
D:-------------------------------------------------7-5---
A:---3-33----------------------3-33-----5-55-------------
E:--------333-5-55555555555555------333------------------x1

G:---------------------------------------------------------
D:---------------------------------------------------------
A:---3-33----------------------3-33-----5-55555555555555---
E:--------333-5-55555555555555------333--------------------x1

G:-------------------------------------------5-7-5-------
D:-------------------------------------------------7-5---
A:---3-33----------------------3-33-----5-55-------------
E:--------333-5-55555555555555------333------------------x1

G:------------------------------------------
D:------------------------------------------
A:---3-33----------------------3-33-----5---
E:--------333-5-55555555555555------333-----x1

The order is:
.Intro x2
.Verse x6
.Chorus x1
.Verse x6
.Chorus x1
.Bridge x1
.End Chorus x1





Tab by: mdc_ivan




            
            
Suggest correction
Creating personal tab
Creating personal tab
You can edit any tab online and save it as your Personal.

You can edit, replace or remove any tab part or add personal notes – all changes will be seen only by you.

Personal tabs can be accessed anytime from any device, even offline.
Learn more »
Give kudos to tab author, rate the tab!
1 2 3 4 5
comments
print report bad tab
guest
You may want to rate the tab now too:
select rating
Wanna post a correction for this tab? Suggest correction