Oops, an error
Loading. Please wait.
We have an official No Control tab made by UG professional guitarists. Check out the tab »
×
118 views 3 this week
no commentswrite comment
1 2 3 4 5
2 more votes to show rating
add to favorites
×
Save as Personal and add changes to this tab that will be seen only by you. Learn more ›
×
You can save this tab as Personal to edit and correct it or add notes. All changes will be seen only by you. Learn more »
launch autoscroll
font size
0
reset
guitar tuner
edit
Autoscroll
slow
fast
+/-
esc
set tempo
stop
Author
Difficulty
Song: No Control
Artist: Bad Religion
Album: No Control
Genre: Melodic Hardcore Punk
Year: 1989

Hey guys! This is the bass tab of the song and it's 100% correct and very fun to play.
Anyway, enjoy the Bad Religion!

Intro/Verse:

G:---------------------
D:---------------------
A:------55-----7-777---
E:---77----5-5---------

Pre-Chorus:

G:------------------------------------------------------
D:----------------------------------------77777-5-------
A:----------4-5-7---------------------------------7-5---
E:---3333-5-------3333-5555-3333-55555555---------------

Chorus 1:

G:---------------------------------------------------
D:---------------------------------------------------
A:--------------------4-5-7------------------5-4-2---
E:---7777-5555-3333-5-------7777-5555-3333-5---------

Chorus 2:

G:---------------------------------------------------
D:---------------------------------------------------
A:--------------------4-5-7------------------5-4-2---
E:---7777-5555-3333-5-------7777-5555-3333-5---------x1

G:---------------------------------------------------------------
D:---------------------------------------------------------------
A:----------------------4-------------------------------5555-7---
E:---7777-5555-3333-555---7777-5555-3333-5555-7777-5555----------x1

Final Chorus:

G:-------------------------------------------------
D:-------------------------------------------------
A:-------------------4-5-7-----------------5-4-2---
E:---7777-3333-55555-------7777-3333-55555---------x1

G:---------------------------------------------------
D:---------------------------------------------------
A:-------------5555---4-5-4-----------5555---5-4-----
E:---7777-3333------5-------7777-3333------5-----5---x1

G:-------------------------------------------------
D:-------------------------------------------------
A:-------------------4-5-7-----------------5-4-2---
E:---7777-3333-55555-------7777-3333-55555---------x1

G:--------------------------------------------------
D:--------------------------------------------------
A:-------------5555---4-5-4-----------55555-4-------
E:---7777-3333------5-------7777-3333---------7-5---x1

End:

G:----------------------------
D:----------------------------
A:----------------------------
E:---7-77-5-7-77-5-7-77-5-7---

The order is:
.Intro x4
.Verse x8
.Pre-Chorus x1
.Chorus 1 x1
.Verse x10
.Pre-Chorus x1
.Chorus 2 x1
.---------------
.Final Chorus x1
.End x1





Tab by: mdc_ivan


















            
            
Suggest correction
Creating personal tab
Creating personal tab
You can edit any tab online and save it as your Personal.

You can edit, replace or remove any tab part or add personal notes – all changes will be seen only by you.

Personal tabs can be accessed anytime from any device, even offline.
Learn more »
Give kudos to tab author, rate the tab!
1 2 3 4 5
comments
print report bad tab
guest
You may want to rate the tab now too:
select rating
Wanna post a correction for this tab? Suggest correction