Oops, an error
Loading. Please wait.

Recipe For Hate tab

version 3
version 3

Whole song

Interactive

7 views 3 this week
no commentswrite comment
1 2 3 4 5
3 more votes to show rating
add to favorites
×
Save as Personal and add changes to this tab that will be seen only by you. Learn more ›
×
You can save this tab as Personal to edit and correct it or add notes. All changes will be seen only by you. Learn more »
launch autoscroll
font size
0
reset
how to read this tab
guitar tuner
edit
Autoscroll
slow
fast
+/-
esc
set tempo
stop
Artist: Bad Religion
Song: Recipe For Hate
Album: Recipe For Hate (1993)

Guitar 1 (E A D G B e) - 'Brett Gurewitz - Distortion'
Guitar 2 (E A D G B e) - 'Greg Hetson - Distortion'

[Intro]
4/4
  Guitar 1
    E   S E.    Q       E   Q            Q       Q       E   Q       E
e|------------------------------------|------------------------------------|
B|------------------------------------|------------------------------------|
G|--7---7h9-----9-------9---7---------|--7h9-----7-------------------------|
D|--7---7h9-----9-------9---7---------|--7h9-----7-------10--9-------9-----|
A|--7---7-------7-------7---7---------|--7-------7-------7---7-------7-----|
E|------------------------------------|------------------------------------|

                                       2/4
    Q       Q       E   Q      E         E   E   E  E
e|------------------------------------|--------------------|
B|------------------------------------|--------------------|
G|--12------12------12--12-----12-----|--------------------|
D|--12------12------12--12-----12-----|--7---7---7---7-----|
A|--10------10------10--10-----10-----|--7---7---7---7-----|
E|------------------------------------|--5---5---5---5-----|

4/4
    E   E   E   E   E   S E   S E        E   E   E   E   E   S E   S E
e|------------------------------------|------------------------------------|
B|------------------------------------|------------------------------------|
G|--7==h9---9---9---7---9-9---9-9-----|--7==h9---9---9---5-----------------|
D|--7==h9---9---9---7---9-9---9-9-----|--7==h9---9---9---5---5-5---5-5-----|
A|--7-------7---7---7---7-7---7-7-----|--7-------7---7---3---5-5---5-5-----|
E|------------------------------------|----------------------3-3---3-3-----|


    E   E   E   E   E   S E   S E        E   E   E   E   E   S E   S E
e|------------------------------------|------------------------------------|
B|------------------------------------|------------------------------------|
G|--7==h9---9---9---7---9-9---9-9-----|--7==h9---9---9---5---7-7---7-7-----|
D|--7==h9---9---9---7---9-9---9-9-----|--7==h9---9---9---5---7-7---7-7-----|
A|--7-------7---7---7---7-7---7-7-----|--7-------7---7---3---5-5---5-5-----|
E|------------------------------------|------------------------------------|


  Gtr 1 & 2
    E   E   E   E   E   S E   S E        E   E   E   E   E   S E   S E
e|------------------------------------|------------------------------------|
B|------------------------------------|------------------------------------|
G|--7==h9---9---9---7---9-9---9-9-----|--7==h9---9---9---5-----------------|
D|--7==h9---9---9---7---9-9---9-9-----|--7==h9---9---9---5---5-5---5-5-----|
A|--7-------7---7---7---7-7---7-7-----|--7-------7---7---3---5-5---5-5-----|
E|------------------------------------|----------------------3-3---3-3-----|


    E   E   E   E   E   S E   S E        E   E   E   E   E   S E   S E
e|------------------------------------|------------------------------------|
B|------------------------------------|------------------------------------|
G|--7==h9---9---9---7---9-9---9-9-----|--7==h9---9---9---5---7-7---7-7-----|
D|--7==h9---9---9---7---9-9---9-9-----|--7==h9---9---9---5---7-7---7-7-----|
A|--7-------7---7---7---7-7---7-7-----|--7-------7---7---3---5-5---5-5-----|
E|------------------------------------|------------------------------------|


[Verse 1]
  Gtr 1 & 2
    E   E   E   E   E   S E   S E        E   E   E   E   E   S E   S E
e|------------------------------------|------------------------------------|
B|o-----------------------------------|------------------------------------|
G|--7==h9---9---9---7---9-9---9-9-----|--7==h9---9---9---5-----------------|
D|--7==h9---9---9---7---9-9---9-9-----|--7==h9---9---9---5---5-5---5-5-----|
A|o-7-------7---7---7---7-7---7-7-----|--7-------7---7---3---5-5---5-5-----|
E|------------------------------------|----------------------3-3---3-3-----|


    E   E   E   E   E   S E   S E        E   E   E   E   E   S E   S E     (x3)
e|------------------------------------|------------------------------------|
B|------------------------------------|-----------------------------------o|
G|--7==h9---9---9---7---9-9---9-9-----|--7==h9---9---9---5---7-7---7-7-----|
D|--7==h9---9---9---7---9-9---9-9-----|--7==h9---9---9---5---7-7---7-7-----|
A|--7-------7---7---7---7-7---7-7-----|--7-------7---7---3---5-5---5-5----o|
E|------------------------------------|------------------------------------|


    E   E   E   E   E   S E   S E        E   E   E   E   E   S E   S E
e|------------------------------------|------------------------------------|
B|------------------------------------|------------------------------------|
G|--7==h9---9---9---7---9-9---9-9-----|--7==h9---9---9---5---7-7---7-7-----|
D|--7==h9---9---9---7---9-9---9-9-----|--7==h9---9---9---5---7-7---7-7-----|
A|--7-------7---7---7---7-7---7-7-----|--7-------7---7---3---5-5---5-5-----|
E|------------------------------------|------------------------------------|


[Chorus 1]
  Gtr 1
    Q       Q       E   Q       E        Q       Q       E   Q.
e|------------------------------------|------------------------------------|
B|------------------------------------|------------------------------------|
G|------------------------------------|----------7-------------------------|
D|--7h9-----9-------9---7-------7-----|--7h9-----7-------10--9-------------|
A|--7-------7-------------------7-----|--7-------7-------------------------|
E|------------------------------------|------------------------------------|
 |                                    |                                    |
 |Gtr 2                               |                                    |
 |  Q       Q       E   Q       E     |  Q       Q       E   Q       E     |
e|------------------------------------|------------------------------------|
B|------------------------------------|------------------------------------|
G|--7h9-----9-------9---7-------7-----|--7h9-----9-------9---7-------7-----|
D|--7h9-----9-------9---7-------7-----|--7h9-----9-------9---7-------7-----|
A|--7-------7-------7---7-------7-----|--7-------7-------7---7-------7-----|
E|------------------------------------|------------------------------------|


    Q       Q       E   Q       E        E   E   E   E   Q       Q
e|------------------------------------|------------------------------------|
B|------------------------------------|------------------------------------|
G|------------------------------------|------------------9-------9---------|
D|--9-------9-------9---7-------0-----|--7---7---7---7---9-------9---------|
A|------------------------------0-----|--7---7---7---7---7-------7---------|
E|------------------------------------|--5---5---5---5---------------------|
 |                                    |                                    |
 |  Q       Q       E   Q       E     |  E   E   E   E   Q       E   E     |
e|------------------------------------|------------------------------------|
B|------------------------------------|------------------------------------|
G|----------4-------4---4-------------|------------------9-------9---7-----|
D|--5-------5-------5---5-------5-----|--7---7---7---7---9-------9---7-----|
A|--5-------5-------5---5-------5-----|--7---7---7---7---7-------7---7-----|
E|--3-------3-------3---3-------3-----|--5---5---5---5---------------------|


    Q       Q       E   Q       E        Q       Q       E   Q.
e|------------------------------------|------------------------------------|
B|------------------------------------|------------------------------------|
G|------------------------------------|----------7-------------------------|
D|--7h9-----9-------9---7-------7-----|--7h9-----7-------10--9-------------|
A|--7-------7-------7-----------7-----|--7-------7-------------------------|
E|------------------------------------|------------------------------------|
 |                                    |                                    |
 |Gtr 2                               |                                    |
 |  Q       Q       E   Q       E     |  Q       Q       E   Q       E     |
e|------------------------------------|------------------------------------|
B|------------------------------------|------------------------------------|
G|--7h9-----9-------9---7-------7-----|--7h9-----9-------9---7-------7-----|
D|--7h9-----9-------9---7-------7-----|--7h9-----9-------9---7-------7-----|
A|--7-------7-------7---7-------7-----|--7-------7-------7---7-------7-----|
E|------------------------------------|------------------------------------|

                                       2/4
    Q       Q       E   Q       E        E   E   E   E
e|------------------------------------|--------------------|
B|------------------------------------|--------------------|
G|------------------------------------|--------------------|
D|--5-------5-------5---5-------5-----|--7---7---7---7-----|
A|--5-------5-------5---5-------5-----|--7---7---7---7-----|
E|--3-------3-------3---3-------3-----|--5---5---5---5-----|
 |                                    |                    |
 |  Q       Q       E   Q       E     |  E   E   E   E     |
e|------------------------------------|--------------------|
B|------------------------------------|--------------------|
G|------------------------------------|--------------------|
D|--5-------5-------5---5-------5-----|--7---7---7---7-----|
A|--5-------5-------5---5-------5-----|--7---7---7---7-----|
E|--3-------3-------3---3-------3-----|--5---5---5---5-----|

4/4
    E   E   E   E   E   S E   S E        E   E   E   E   E   S E   S E
e|------------------------------------|------------------------------------|
B|------------------------------------|------------------------------------|
G|--7==h9---9---9---7---9-9---9-9-----|--7==h9---9---9---5-----------------|
D|--7==h9---9---9---7---9-9---9-9-----|--7==h9---9---9---5---5-5---5-5-----|
A|--7-------7---7---7---7-7---7-7-----|--7-------7---7---3---5-5---5-5-----|
E|------------------------------------|----------------------3-3---3-3-----|


    E   E   E   E   E   S E   S E        E   E   E   E   E   S E   S E
e|------------------------------------|------------------------------------|
B|------------------------------------|------------------------------------|
G|--7==h9---9---9---7---9-9---9-9-----|--7==h9---9---9---5---7-7---7-7-----|
D|--7==h9---9---9---7---9-9---9-9-----|--7==h9---9---9---5---7-7---7-7-----|
A|--7-------7---7---7---7-7---7-7-----|--7-------7---7---3---5-5---5-5-----|
E|------------------------------------|------------------------------------|


[Verse 2]
  Gtr 1 & 2
    E   E   E   E   E   S E   S E        E   E   E   E   E   S E   S E
e|------------------------------------|------------------------------------|
B|------------------------------------|------------------------------------|
G|--7==h9---9---9---7---9-9---9-9-----|--7==h9---9---9---5-----------------|
D|--7==h9---9---9---7---9-9---9-9-----|--7==h9---9---9---5---5-5---5-5-----|
A|--7-------7---7---7---7-7---7-7-----|--7-------7---7---3---5-5---5-5-----|
E|------------------------------------|----------------------3-3---3-3-----|


    E   E   E   E   E   S E   S E        E   E   E   E   E   S E   S E
e|------------------------------------|------------------------------------|
B|------------------------------------|------------------------------------|
G|--7==h9---9---9---7---9-9---9-9-----|--7==h9---9---9---5---7-7---7-7-----|
D|--7==h9---9---9---7---9-9---9-9-----|--7==h9---9---9---5---7-7---7-7-----|
A|--7-------7---7---7---7-7---7-7-----|--7-------7---7---3---5-5---5-5-----|
E|------------------------------------|------------------------------------|


[Solo]
  Gtr 1
    E   E   E   E   E   S E   S E        E   S E   S E   E   S E   S E
e|------------------------------------|------------------------------------|
B|------------------------------------|------------------------------------|
G|--7==h9---9---9---7---9-9---9-9-----|------------------7---7-7---7-7-----|
D|--7==h9---9---9---7---9-9---9-9-----|--5---5-5---5-5---7---7-7---7-7-----|
A|--7-------7---7---7---7-7---7-7-----|--5---5-5---5-5---5---5-5---5-5-----|
E|------------------------------------|--3---3-3---3-3---------------------|
 |                                    |                                    | [I'm not 100% sure on the timing
 |Gtr 2                               |                                    |   of the notes in the solo, but
 |  H.                  E     S  S    |  E.    E.    E  E    E   E   E     |    I am sure that the correct
e|------------------------------------|------------------------------------|        notes are tabbed]
B|--15b17==============r15----13-15---|--------------15b17---15--13--------|
G|------------------------------------|--0-----12~-------------------12----|
D|------------------------------------|------------------------------------|
A|------------------------------------|------------------------------------|
E|------------------------------------|------------------------------------|
PM                                    |  .                            .    |


    E   E   S S E   E   S E   S E        E   S E   S E   E   S E   S E
e|------------------------------------|------------------------------------|
B|------------------------------------|------------------------------------|
G|--9---9---9-9-9---9---9-9---9-9-----|------------------7---7-7---7-7-----|
D|--9---9---9-9-9---9---9-9---9-9-----|--5---5-5---5-5---7---7-7---7-7-----|
A|--7---7---7-7-7---7---7-7---7-7-----|--5---5-5---5-5---5---5-5---5-5-----|
E|------------------------------------|--3---3-3---3-3---------------------| [If you want to improvise a solo,
 |                                    |                                    |   Bad Religion use the Em scale 
 |  E   E  E   E   E   Q      E       |  +W                                |       in the 12th position]
e|------------------------------------|------------------------------------|
B|--12--13p12-------------------------|------------------------------------|
G|-------------14--x---12-----12/14~--|--(14)------------------------------|
D|------------------------------------|------------------------------------|
A|------------------------------------|------------------------------------|
E|------------------------------------|------------------------------------|


[Verse 3]
  Gtr 1 & 2
    E   E   E   E   E   S E   S E        E   E   E   E   E   S E   S E
e|------------------------------------|------------------------------------|
B|o-----------------------------------|------------------------------------|
G|--7==h9---9---9---7---9-9---9-9-----|--7==h9---9---9---5-----------------|
D|--7==h9---9---9---7---9-9---9-9-----|--7==h9---9---9---5---5-5---5-5-----|
A|o-7-------7---7---7---7-7---7-7-----|--7-------7---7---3---5-5---5-5-----|
E|------------------------------------|----------------------3-3---3-3-----|


    E   E   E   E   E   S E   S E        E   E   E   E   E   S E   S E     (x2)
e|------------------------------------|------------------------------------|
B|------------------------------------|-----------------------------------o|
G|--7==h9---9---9---7---9-9---9-9-----|--7==h9---9---9---5---7-7---7-7-----|
D|--7==h9---9---9---7---9-9---9-9-----|--7==h9---9---9---5---7-7---7-7-----|
A|--7-------7---7---7---7-7---7-7-----|--7-------7---7---3---5-5---5-5----o|
E|------------------------------------|------------------------------------|


[Chorus 2]
  Gtr 1
    Q       Q       E   Q       E        Q       Q       E   Q       E
e|------------------------------------|------------------------------------|
B|------------------------------------|------------------------------------|
G|------------------------------------|----------7-------------------------|
D|--7h9-----9-------9---7-------7-----|--7h9-----7-------10--9-------9-----|
A|--7-------7-------------------7-----|--7-------7-------------------------|
E|------------------------------------|------------------------------------|
 |                                    |                                    |
 |Gtr 2                               |                                    |
 |  Q       Q       E   Q       E     |  Q       Q       E   Q       E     |
e|------------------------------------|------------------------------------|
B|------------------------------------|------------------------------------|
G|--7h9-----9-------9---7-------7-----|--7h9-----9-------9---7-------7-----|
D|--7h9-----9-------9---7-------7-----|--7h9-----9-------9---7-------7-----|
A|--7-------7-------7---7-------7-----|--7-------7-------7---7-------7-----|
E|------------------------------------|------------------------------------|


    Q       Q       E   Q       E        E   E   E   E   Q       Q
e|------------------------------------|------------------------------------|
B|------------------------------------|------------------------------------|
G|------------------------------------|------------------------------------|
D|--7h9-----9-------9---7-------9-----|--9-----------0---2-------2---------|
A|------------------------------------|------7---7---0---2-------2---------|
E|------------------------------------|------------------0-------0---------|
 |                                    |                                    |
 |  Q       Q       E   Q       E     |  E   E   E   E   Q       E   E     |
e|------------------------------------|------------------------------------|
B|------------------------------------|------------------------------------|
G|----------4-------4---4-------------|------------------9-------9---7-----|
D|--5-------5-------5---5-------5-----|--7---7---7---7---9-------9---7-----|
A|--5-------5-------5---5-------5-----|--7---7---7---7---7-------7---7-----|
E|--3-------3-------3---3-------3-----|--5---5---5---5---------------------|


    Q       Q       E   Q       E        Q       Q       E   Q.
e|------------------------------------|------------------------------------|
B|------------------------------------|------------------------------------|
G|----------------------7-------------|----------7-------------------------|
D|--7h9-----9-------9---7-------7-----|--7h9-----7-------10--9-------------|
A|--7-------7-------7---7-------7-----|--7-------7-------------------------|
E|------------------------------------|------------------------------------|
 |                                    |                                    |
 |Gtr 2                               |                                    |
 |  Q       Q       E   Q       E     |  Q       Q       E   Q       E     |
e|------------------------------------|------------------------------------|
B|------------------------------------|------------------------------------|
G|--7h9-----9-------9---7-------7-----|--7h9-----9-------9---7-------7-----|
D|--7h9-----9-------9---7-------7-----|--7h9-----9-------9---7-------7-----|
A|--7-------7-------7---7-------7-----|--7-------7-------7---7-------7-----|
E|------------------------------------|------------------------------------|

                                       2/4
    Q       Q       E   Q       E        E   E   E   E
e|------------------------------------|--------------------|
B|------------------------------------|--------------------|
G|------------------------------------|--------------------|
D|--7h9-----9-------9---7-------9-----|--9-----------------|
A|------------------------------------|------7---7---5-----|
E|------------------------------------|--------------------|
 |                                    |                    |
 |  Q       Q       E   Q       E     |  E   E   E   E     |
e|------------------------------------|--------------------|
B|------------------------------------|--------------------|
G|------------------------------------|--------------------|
D|--5-------5-------5---5-------5-----|--7---7---7---7-----|
A|--5-------5-------5---5-------5-----|--7---7---7---7-----|
E|--3-------3-------3---3-------3-----|--5---5---5---5-----|

[Outro]
4/4
  Gtr 1
    E   E   E   E   E   S E   S E        E   E   E   E   E   S E   S E
e|------------------------------------|------------------------------------|
B|------------------------------------|------------------------------------|
G|--7==h9---9---9---7---9-9---9-9-----|--7==h9---9---9---5-----------------|
D|--7==h9---9---9---7---9-9---9-9-----|--7==h9---9---9---5---5-5---5-5-----|
A|--7-------7---7---7---7-7---7-7-----|--7-------7---7---3---5-5---5-5-----|
E|------------------------------------|----------------------3-3---3-3-----|
 |                                    |                                    |
 |Gtr 2                               |                                    |
 |  W                                 | +W                                 |
e|------------------------------------|------------------------------------|
B|------------------------------------|------------------------------------|
G|------------------------------------|------------------------------------|
D|--2---------------------------------|------------------------------------|
A|--2---------------------------------|------------------------------------|
E|--0---------------------------------|------------------------------------|

    E   E   E   E   E   S E   S E        E   E   E   E   E   S E   S E
e|------------------------------------|------------------------------------|
B|------------------------------------|------------------------------------|
G|--7==h9---9---9---7---9-9---9-9-----|--7==h9---9---9---5---7-7---7-7-----|
D|--7==h9---9---9---7---9-9---9-9-----|--7==h9---9---9---5---7-7---7-7-----|
A|--7-------7---7---7---7-7---7-7-----|--7-------7---7---3---5-5---5-5-----|
E|------------------------------------|------------------------------------|
 |                                    |                                    |
 | +W                                 | +H.                      Q         |
e|------------------------------------|------------------------------------|
B|------------------------------------|------------------------------------|
G|------------------------------------|------------------------------------|
D|------------------------------------|------------------------------------|
A|------------------------------------|------------------------------------|
E|------------------------------------|-----------------------[Pick slide]-|

  Gtr 1 & 2
    E   E   E   E   E   S E   S E        E   E   E   E   E   S E   S E
e|------------------------------------|------------------------------------|
B|------------------------------------|------------------------------------|
G|--7==h9---9---9---7---9-9---9-9-----|--7==h9---9---9---5-----------------|
D|--7==h9---9---9---7---9-9---9-9-----|--7==h9---9---9---5---5-5---5-5-----|
A|--7-------7---7---7---7-7---7-7-----|--7-------7---7---3---5-5---5-5-----|
E|------------------------------------|----------------------3-3---3-3-----|

                                       2/4
    E   E   E   E   E   S E   S E        E   E   E   E
e|------------------------------------|--------------------|
B|------------------------------------|--------------------|
G|--7==h9---9---9---7---9-9---9-9-----|--7==h9---9---9-----|
D|--7==h9---9---9---7---9-9---9-9-----|--7==h9---9---9-----|
A|--7-------7---7---7---7-7---7-7-----|--7-------7---7-----|
E|------------------------------------|--------------------|

4/4
    E   S E   S E   E   S E   S E        E   S E   S E   E   E   E   E
e|------------------------------------|------------------------------------|
B|------------------------------------|------------------------------------|
G|--5---7-7---7-7---5---7-7---7-7-----|--5---7-7---7-7---5---5-------------|
D|--5---7-7---7-7---5---7-7---7-7-----|--5---7-7---7-7---5---5---5---5-----|
A|--3---5-5---5-5---3---5-5---5-5-----|--3---5-5---5-5---3---3---5---5-----|
E|------------------------------------|--------------------------3---3-----|
PM                                    |                  .   .   .   .     |

    E
e|------------------------------------|
B|------------------------------------|
G|------------------------------------|
D|--2---------------------------------|
A|--2---------------------------------|
E|--0---------------------------------|


************************************

| (n)  Ghost note
|  ~   Vibrato
|  /   Slide up
|  \   Slide down
|  =   Extend note into
|  b   Bend
|  r   Release bend
|  x   Dead note
| PM   Palm mute
|  h   Hammer-on
|  p   Pull-off
|  S   Sixteenth note
|  E   Eighth note
|  Q   Quarter note
|  H   Half note
|  W   Whole note
|  .   Dotted note
| (N)  Rest
|  +   Add note value
|o o|  Reprise

************************************
Suggest correction
Creating personal tab
Creating personal tab
You can edit any tab online and save it as your Personal.

You can edit, replace or remove any tab part or add personal notes – all changes will be seen only by you.

Personal tabs can be accessed anytime from any device, even offline.
Learn more »
Give kudos to tab author, rate the tab!
1 2 3 4 5
comments
print report bad tab
guest
You may want to rate the tab now too:
select rating
Wanna post a correction for this tab? Suggest correction