Oops, an error
Loading. Please wait.

Slumber bass

version 2
version 2

Whole song

Interactive

5,547 views 15 this week
no commentswrite comment
1 2 3 4 5
3 more votes to show rating
add to favorites
×
Save as Personal and add changes to this tab that will be seen only by you. Learn more ›
×
You can save this tab as Personal to edit and correct it or add notes. All changes will be seen only by you. Learn more »
launch autoscroll
font size
0
reset
guitar tuner
edit
Autoscroll
slow
fast
+/-
esc
set tempo
stop
Author
Unregistered
Tabbed By : Simpleboy
e-mail: the_simpleboy@hotmail.com

The other tabs is good groundwork but its actually quite far off,
I realised that when i played it with head phones.

Tuning: E A D G

[Intro]
Played till Riff one
G|--------------------------------|
D|--2/3---------0-2/3-------------|
A|------333-2-3-------33-222-0----|
E|--------------------------------|

Riff One
G|--------|
D|--------|
A|-20-----|
E|--------|

Play intro
G|--------------------------------|
D|--2/3---------0-2/3-------------|
A|------333-2-3-------33-222-0----|
E|--------------------------------|

[Chorus]
G|-----------------------------------------|
D|-----------------------------------------|
A|-----------------------------------------|
E|-1-1-3-3-5-5-5-5-5-4-3-2-----------------|

G|-----------------------------------------|
D|-----------------------------------------|
A|-----------------------------------------|
E|-1-1-3-3-5-5-5-5-5-4-3-2-----------------|

G|-----------------------------------------|
D|-----------------------------------------|
A|-------------------3-3-3-3---------------|
E|-1-1-3-3-5-5-5-5-5-----------------------|

G|-----------------------------------------|
D|-----------------------------------------|
A|-----------------------------------------|
E|-1-1-3-3-5-5-5-5-5-4-3-2-----------------|

[Solo]
G|--------------------------------|
D|--3-2---------0-3-2-------------|
A|------333-2-3-------33-222-0----|
E|--------------------------------|

they are all the riffs but you can figure out the order after the first chorus

            
            
Suggest correction
Creating personal tab
Creating personal tab
You can edit any tab online and save it as your Personal.

You can edit, replace or remove any tab part or add personal notes – all changes will be seen only by you.

Personal tabs can be accessed anytime from any device, even offline.
Learn more »
Give kudos to tab author, rate the tab!
1 2 3 4 5
comments
print report bad tab
guest
Wanna post a correction for this tab? Suggest correction