Oops, an error
Loading. Please wait.

Stranger Than Fiction tab

version 4
version 4

Whole song

Interactive

184 views 1 this week
no commentswrite comment
1 2 3 4 5
3 more votes to show rating
add to favorites
×
Save as Personal and add changes to this tab that will be seen only by you. Learn more ›
×
You can save this tab as Personal to edit and correct it or add notes. All changes will be seen only by you. Learn more »
launch autoscroll
font size
0
reset
how to read this tab
guitar tuner
edit
Autoscroll
slow
fast
+/-
esc
set tempo
stop
-------------------------------------------------------------------------------
                  STRANGER THAN FICTION - Bad Religion
-------------------------------------------------------------------------------
Tabbed by: BathrobeHero

Tuning: Half-Step Down (Eb Ab Db Gb Bb eb)

The other versions of this songs were mostly correct with some minor mistakes 
on the Pre-Chorus and Bridge, I'm sure this version is 100% accurate.

------------------
Intro (Main Riff) 
------------------

   |=----------x3---------------=|    Variation on the last time
E|----------------------------------|----------------------------------------------|
B|----------------------------------|----------------------------------------------|
G|----------------------------------|----------------------------------------------|
D|----------------------------------|----------------------------------------------|
A|--3-3-2-2-0-0---------------------|--3-3-2-2-0-0---------------------------------|
E|--------------3-3-1-1-0-0-1-1-3-3-|--------------3-3-1-1-0-0-1-1/(slide up neck)-|

---------
Verse (2x)
---------
                                 
e|-------------------------|--------------------------------| 
B|-------------------------|-------*-----*-------*----------| 
G|-5-----3-----2-----------|-5-----9-----10------12---------| 
D|-5(x8)-3(x8)-2(x8)-5-----|-5(x8)-9(x8)-10(x8)--12(x8)-----|
A|-3-----1-----0-----5(x8)-|-3-----7-----8-------10---------| 
E|-------------------3-----|-------*-----*-------*----------| 

* = Guitar 2 plays these chords an octave lower

-----------
Pre-Chorus
-----------

  |=-----x2-------=|                        "and the obituary..."
e|------------------|----------------------|--------------------| 
B|------------------|----------------------|--------------------| 
G|------------------|-------------7-----7--|--------------------| 
D|-3----5-----7-----|-3-----2-----7(x8)-7--|---5555-------------| 
A|-3(x4)3(x4)-7(x8)-|-3(x8)-2(x8)-5-----5--|---5555-------------| 
E|-1----3-----5-----|-1-----0--------------|---3333-------------| 

-------
Chorus
-------

e|-------------------------|---------------------------------|-------------------------| 
B|-------------------------|---------------------------------|-------------------------| 
G|-5-----4-----2-----------|---------------------------------|-5-----3-----2-----------| 
D|-5(x4)-4(x4)-2(x4)-5-----|---------------------------------|-5(x4)-3(x4)-2(x4)-5-----| 
A|-3-----2-----0-----5(x4)-|-3-3-2-2-0-0---------------------|-3-----1-----0-----5(x4)-| 
E|-------------------3-----|-------------3-3-1-1-0-0-1-1-3-3-|-------------------3-----| 

  |=---x2----=|
e|-------------|------------------|
B|-------------|------------------|
G|-------------|-5------*---------|
D|-3-----5-----|-5(x8)--*--5------|
A|-3(x4)-5(x4)-|-3------*--5(x7)--|
E|-1-----3-----|-----------3------|

*Small rest


-Repeat Verse one time, then Pre-Chorus and Chorus


-------
Bridge
-------

   |=-----small rest in between these chords---=|                      |=-----same rhythm as main riff---=| 
e|------------------------------------------------|-------------------|------------------------------------|
B|------------------------------------------------|-----6~-------5~---|------------------------------------|
G|------------------------------------------------|--7----7~--5----5~-|------------------------------------|
D|-7--7--7--7--5--5--5--5--3--3--3--3--2--2--2--2-|--7--------5-------|------------------------------------|
A|-7--7--5--7--5--5--5--5--3--3--3--3--2--2--2--2-|--5--------3-------|-----0-0-2-2-3-3-----2-2-3-3-5-5----|
E|-5--5--5--5--3--3--3--3--1--1--1--1--0--0--0--0-|-------------------|-1-1-------------3-3----------------|

------
Outro
------

e|-------------------------|---------------------------------|-------------------------| 
B|-------------------------|---------------------------------|-------------------------| 
G|-5-----4-----2-----------|---------------------------------|-5-----3-----2-----------| 
D|-5(x4)-4(x4)-2(x4)-5-----|---------------------------------|-5(x4)-3(x4)-2(x4)-5-----| 
A|-3-----2-----0-----5(x4)-|-3-3-2-2-0-0---------------------|-3-----1-----0-----5(x4)-| 
E|-------------------3-----|-------------3-3-1-1-0-0-1-1-3-3-|-------------------3-----| 

  |=---x2----=|
e|-------------|----------------------------------|--------| 
B|-------------|----------------------------------|--------| 
G|-------------|----------------------------------|-5~-----| 
D|-3-----5-----|----------------------------------|-5~-----| 
A|-3(x4)-5(x4)-|--3-3-2-2-0-0---------------------|-3~-----| 
E|-1-----3-----|--------------3-3-1-1-0-0-1-1-3-3-|--------| 


Thats about it, listen to the song for any rhythm variations or pickslides, PM me for questions or requests.

************************************

| /   slide up
| \   slide down
| h   hammer-on
| p   pull-off
| ~   vibrato
| +   harmonic
| x   Mute note
| b   Bend
| pb  Pre-bend
| br  Bend release
| pbr Pre-bend release
| brb Bend release bend

************************************

            
            
Suggest correction
Creating personal tab
Creating personal tab
You can edit any tab online and save it as your Personal.

You can edit, replace or remove any tab part or add personal notes – all changes will be seen only by you.

Personal tabs can be accessed anytime from any device, even offline.
Learn more »
Give kudos to tab author, rate the tab!
1 2 3 4 5
comments
print report bad tab
guest
You may want to rate the tab now too:
select rating
Wanna post a correction for this tab? Suggest correction