Oops, an error
Loading. Please wait.
We have an official Suffer tab made by UG professional guitarists. Check out the tab »
×
262 views 6 this week
1 commentread comment
1 2 3 4 5
2 more votes to show rating
add to favorites
×
Save as Personal and add changes to this tab that will be seen only by you. Learn more ›
×
You can save this tab as Personal to edit and correct it or add notes. All changes will be seen only by you. Learn more »
launch autoscroll
font size
0
reset
guitar tuner
edit
Autoscroll
slow
fast
+/-
esc
set tempo
stop
Author
Difficulty
Album: Suffer
Artist: Bad Religion
Genre: Melodic Hardcore Punk
Year: 1988

Hey guys! This is the bass of the album. It's been a hard-work, but it's 100% correct.
Anyway, enjoy the Bad Religion!

01 You Are (The Governement)

Intro/Pre-Verse:

G:-----------------------------------------
D:-----------------------------------------
A:-----------------4-6---------------4-3---
E:---1-1-4-4-6-666-----1-1-4-4-6-666-------

Verse 1:

G:------------------------------------------------------------------------------
D:------------------------------------------------------------------------------
A:---4-444444----------6-666666-8-8888-66-4-444444----------6-666666------------
E:------------4-444444-----------------------------4-444444----------6-666666---x1

G:-------------------------------------------   -----------------------------------------
D:-------------------------------------------   -----------------------------------------
A:---4-444444----------6-666666-8-88888-66---   ---4-444444-6-666666-8-8888888-8888-66---
E:------------4-444444-----------------------x1 -----------------------------------------x1

G:-------------------------------------------
D:-------------------------------------------
A:---4-444444-6-666666-8-88888888-66-44-33---
E:-------------------------------------------x1

Verse 2:

G:------------------------------------------------------------------------------
D:------------------------------------------------------------------------------
A:---4-444444----------6-666666-8-8888-66-4-444444----------6-666666------------
E:------------4-444444-----------------------------4-444444----------6-666666---x1

G:-------------------------------------------   -----------------------------------------
D:-------------------------------------------   -----------------------------------------
A:---4-444444----------6-666666-8-88888-66---   ---4-444444-6-666666-8-8888888-8888-66---
E:------------4-444444-----------------------x1 -----------------------------------------x2

G:-----------------------
D:-----------------------
A:---4-444444-6-666666---
E:-----------------------x1

Chorus:

G:--------------------------------------------
D:--------------------------------------------
A:---8-8888-6--8-8888-6---------6---------6---
E:-----------------------4-4444----4-4444-----

End:

G:-------------------------------------------
D:-------------------------------------------
A:---8-888888-4-444444----------6-666666-----
E:---------------------4-444444----------1---

The order is:
.Intro x4
.Verse 1 x1
.Pre-Verse x2
.Verse 2 x1
.Chorus x4
.End x1

--------------------------------------------------------------------------------------------------------------

02 1000 More Fools

Riff 1:

G:------------------------------------------
D:------------------------------------------
A:-------3---------5-55-------3-------------
E:---5-5--------3---------5-5--------3--1---

Riff 2:

G:----------------
D:----------------
A:----------------
E:---55-3-33333---

Riff 3:

G:------------------------------------------------------------------------------
D:------------------------------------------------------------------------------
A:--------------------3-3333333333333-2-----------------------------------------
E:---5-55555555555555-------------------3-3333333333333-0-1-11111111111-0-1-3---

Riff 4:

G:-------------------------------------------   ------------------------------
D:-------------------------------------------   ------------------------------
A:------------3-33333-2----------------------   ------------3-333333-2(x32)---
E:---5-555555-----------3-333333-1-11111-3---x3 ---5-555555-------------------x1

Riff 5:

G:-------
D:-------
A:-------
E:---5---

The order is:
.Riff 1 x1
.Riff 2 x4
.Riff 3 x2
.Riff 4 x1
.Riff 1 x1
.Riff 2 x4
.Riff 3 x2
.Riff 4 x1
.Riff 1 x1
.Riff 2 x4
.Riff 5 x1

--------------------------------------------------------------------------------------------------------------

03 How Much Is Enough?

Intro:

G:------------------------   --------------------------------------------
D:------------------------   --------------------------------------------
A:---7-777777------5555---   ---7-777777-3-333333----00-22-33-55555555---
E:------------3-33--------x2 ---------------------33---------------------x1

Verse 1:

G:------------------------   --------------------------------------------
D:------------------------   --------------------------------------------
A:---7-777777------5555---   ---7-777777-3-333333----00-22-33-55555555---
E:------------3-33--------x2 ---------------------33---------------------x1

G:------------------------   --------------------------------------------
D:------------------------   --------------------------------------------
A:---7-777777------5555---   ---7-777777----------5-555555-------44-55---
E:------------3-33--------x2 ------------3-333333----------55-77---------x1

G:--------------------------------------
D:--------------------------------------
A:--------------------------------------
E:---0-0000000-0000000-0000000-000000---x1

Chorus 1:

G:----------------------------------------------------------------------------
D:----------------------------------------------------------------------------
A:---------------------------------00-22-5-5555555-5555-44--------------------
E:---2-2222222-222222-3-3333333-33-------------------------5-5555555-555555---x1

G:-------------------------------------------------------------------------------------------
D:-------------------------------------------------------------------------------------------
A:---------------------------------00-22-5-5555555-555555-9-9999999-9999999-99999999-7-5-4---
E:---2-2222222-222222-3-3333333-33-----------------------------------------------------------x1

Pre-Verse:

G:------------------------   --------------------------------------------
D:------------------------   --------------------------------------------
A:------------5-5---------   ---------------------5-555555-------44-55---
E:---7-777777------5-55---x2 ---7-777777-3-333333----------55-77---------x1

Verse 2:

G:------------------------   --------------------------------------------
D:------------------------   --------------------------------------------
A:------------5-5---------   ---------------------5-555555-------44-55---
E:---7-777777------5-55---x2 ---7-777777-3-333333----------55-77---------x1

G:------------------------   -----------------------------------------
D:------------------------   -----------------------------------------
A:------------5-5---------   ------------5-555555---------------------
E:---7-777777------5-55---x2 ---7-777777----------5-555555-0-000000---x1

G:--------------------------------------
D:--------------------------------------
A:--------------------------------------
E:---7-7777777-7777777-77777777-5-3-2---x1

Chorus 2:

G:-----------------------------------------------------------------------------
D:-----------------------------------------------------------------------------
A:---4-4444444-444444-5-555555-5555-44---------------44-55-7-7777777-7777-55---
E:-------------------------------------5-55555555-77---------------------------x1

G:-----------------------------------------------------------------------------------------
D:-----------------------------------------------------------------------------------------
A:---4-4444444-444444-5-555555-5555-44------------------4-4444444-4444444-4444444-444444---
E:-------------------------------------5-5555555-555555------------------------------------x1

G:--------------------------------------
D:--------------------------------------
A:---5-5555555-5555555-5555555-555555---
E:--------------------------------------x1

End:

G:------------------------   -------
D:------------------------   -------
A:---9-999999------7777---   ---9---
E:------------5-55--------x3 -------x1

The order is:
.Intro x1
.Verse 1 x1
.Chorus 1 x1
.Pre-Verse x1
.Verse 2 x1
.Chorus 2 x1
.End x1

--------------------------------------------------------------------------------------------------------------

04 When?

Verse:

G:---------------------------------   -------------------------------------------------------
D:---------------------------------   -------------------------------------------------------  
A:---5-5555-3-55-3-1-111111----3---   ---5-555555-3-333333-1-111111-0-000000-----------------
E:--------------------------1------x4 ---------------------------------------3-333333-1--0---x1 

Pre-Chorus:

G:---------------------------------   -----------------
D:---------------------------------   -----------------
A:---5-5555-3-55-3-1-111111----3---   ---5-5555-3-55---
E:--------------------------1------x1 -----------------x4

Chorus:

G:--------------------------------------------------------------------------
D:--------------------------------------------------------------------------
A:---------------------5-5555-3-55-3-----------------------------33---------
E:---1-111111-3-333333---------------1-111111-3-333333-5-55555555---55-33---x1

G:-------------------------------------------------------   -----------------------------------
D:-------------------------------------------------------   -----------------------------------
A:---------------------5-5555-3-55-3---------------------   ----------------------------3------
E:---1-111111-3-333333---------------1-111111-3-333333---x1 ---5-5555555-5555555-555555----3---x2

End:

G:---------------------------------   ------------------------------------------------------- 
D:---------------------------------   -------------------------------------------------------  
A:---5-5555-3-55-3-1-111111----3---   ---5-555555-3-333333-1-111111-0-000000-----------------   
E:--------------------------1------x2 ---------------------------------------3-333333-1--0---x1 

G:-----------------
D:-----------------
A:---5-5555-3-55---
E:-----------------x1

The order is:
.Verse x2
.Pre-Chorus x1
.Chorus x1
.Verse x1
.End x1

--------------------------------------------------------------------------------------------------------------

05 Give You Nothing

Intro/Verse 2:

G:----------------------------------------------------
D:-------5----5----------------5----5------7--5-7-5---
A:---777----7----555-0-000-777----7----555------------
E:----------------------------------------------------

Verse 1:

G:---------------------------
D:-------5----5--------------
A:---777----7----555-0-000---
E:---------------------------

Chorus 1:

G:----------------------------------------------------------------------------------------
D:-------------------------------------------5----5----------------5----5------7--5-7-5---
A:---------------------------------------777----7----555-0-000-777----7----555------------
E:---8888888888888888-77777777-6666-5555--------------------------------------------------x1

G:------------------------------
D:--------------------10(ten)---
A:------------------------------
E:---8-8-8-8-8-8-8-8------------x1

Pre-Verse:

G:------------------------
D:---9--------------------
A:-----7777777777777777---
E:------------------------

Chorus 2:

G:-----------------------------------------------------------------------------------------
D:-------------------------------------------5----5----------------5----5------7--5-7-5----
A:---------------------------------------777----7----555-0-000-777----7----555-------------
E:---8888888888888888-77777777-6666-5555---------------------------------------------------x1

G:-----------------------------
D:-----------------------------
A:-----------------------------
E:---8-8-8-8-8-8-8-8-10(ten)---x1

Bridge:

G:---------------------------------------------------------   ----------------------------
D:----------------------------------------5/7--5/7-5/7-5---   ----------------------------
A:---7-7-------55-----4-5-6-7-7-------55-------------------   ---7-7-------55-----4-5-6---
E:--------3-3------5-------------3-3-----------------------x1 --------3-3------5----------x4

G:---------------------------------------------------------------
D:---------------------------------------------------------------
A:---3333333333333333-5555555555555555-7-----77-----2-7-----77---
E:---------------------------------------------------------------x1

End Chorus:

G:----------------------------------------------------------------------------------------------------
D:-------------------------------------------------------5----5----------------5----5------7--5-7-5---
A:------77-88-99----77-88-99----99-88-77----88-77-66-777----7----555-0-000-777----7----555------------
E:---88----------88----------77----------66-----------------------------------------------------------x1

G:-----------------------------------------------------------------------------
D:-------------------------------------------------------5----5----------------
A:------77-88-99----77-88-99----99-88-77----88-77-66-777----7----555-0-000-7---
E:---88----------88----------77----------66------------------------------------x1

Intro:
.Intro x2
.Verse 1 x4
.Chorus 1 x1
.------------
.Pre-Verse x1
.Verse 1 x4
.Chorus 2 x1
.Bridge x1
.------------
.Verse 2 x2
.End Chorus x1

--------------------------------------------------------------------------------------------------------------

06 Land Of Competition

Intro/Pre-Verse:

G:--------------------------------------------------------------------------------
D:-------------------------------44-55-77---------------------------77-55-44------
A:---7-7777777-777777-5-55555555----------7-7777777-777777-5-555555----------55---
E:--------------------------------------------------------------------------------

Verse:

G:-------------------------------------------------------------------------------
D:--------------------------------------------------------------------44-55-77---
A:---7-7777777-777777-5-55555555-99-77-55-7-7777777-777777-5-55555555------------
E:-------------------------------------------------------------------------------x1

G:--------------------------------------------------------------------------------
D:------------------------------------------------------------------77-55-44------
A:---7-7777777-777777-5-55555555-99-77-55-7-7777777-777777-5-555555----------55---
E:--------------------------------------------------------------------------------x1

Chorus:

G:-------------------------------------------------------------------------------------
D:--------------------------------------------------------------------------55---------
A:---3-3333-22----00-22-33-5-555555-7-777777-3-333333-5-555555-7-7777-55-77----77-55---
E:-------------33----------------------------------------------------------------------x1

G:---------------------------------------------------------------
D:---------------------------------------------------------------
A:---3-3333-22----00-22-33-5-555555-7-777777-3-333333-5-555555---
E:-------------33------------------------------------------------x1

Bridge:

G:---------------------------------------   -------------------------------------------
D:---------------------------------------   -----------------------------77-55-44------
A:---7-7777777-777777-5-5555555-555555---   ---7-7777777-777777-5-555555----------55---
E:---------------------------------------x3 -------------------------------------------x1

End:

G:---------------------------------------------   ------------------------------------------------------------
D:----------------------------------55---------   -------------------------------------------------------7-5--
A:---3-333333-5-555555-7-7777-55-77----77-55---   ---3-333333-5-555555-7-7777-55-77-55-33-22-3-3-3-3-5-5------
E:---------------------------------------------x2 ----------------------------------------------------------x1

The order is:
.Intro x1
.Verse x1
.Chorus x1
.Pre-Verse x1
.Verse x1
.Chorus x1
.Bridge x1
.Verse x1
.Chorus x1
.Pre-Verse x1
.End x1

--------------------------------------------------------------------------------------------------------------

07 Forbidden Beat

Intro:

G:------------------------------------------
D:------------------------------------------
A:---5-555555-3-3-555555-555555-3-3---------
E:----------------------------------33333---x2

G:------------------------------------------------------------------------------
D:------------------------------------------------------------------------------
A:---5-5555555-555555-3-3333333-3333-22------------00-22-33-5-5555555-5555-33---
E:--------------------------------------3-33333333------------------------------x1

Verse:

G:------------------------------------------------------------------------------
D:------------------------------------------------------------------------------
A:---5-5555555-555555-3-3333333-3333-22------------00-22-33-5-5555555-5555-33---
E:--------------------------------------3-33333333------------------------------x1

G:-----------------------------------------------------------------------------
D:-----------------------------------------------------------------------------
A:---5-5555555-555555-3-3333333-3333-22------------00-22-33-5-5555555-555555---
E:--------------------------------------3-33333333-----------------------------x1

Chorus:

G:---------------------------------------------------------------------------------
D:---------------------------------------------------------------------------------
A:---3-333333----------5-55555555-33-22-00----------3-333333------------00-22-33---
E:------------3-333333---------------------1-111111----------3-33333333------------x1

G:-----------------------------------------------------------------------
D:-----------------------------------------------------------------------
A:------------3-333333----00-22-33-5-555555-1-1111111-111111-3-3333333---
E:---1-111111----------33------------------------------------------------x1

Pre-Verse:

G:------------------------------------------
D:------------------------------------------
A:---5-555555-3-3-555555-555555-3-3---------
E:----------------------------------33333---

End 1:

G:------------------------
D:------------------------
A:---5-555555-3-3---------
E:----------------33333---

End 2:

G:-------
D:-------
A:---5---
E:-------

The order is:
.Intro x1
.Verse x1
.Chorus x1
.Pre-Verse x2
.Verse x1
.Chorus x1
.Pre-Verse x2
.Verse x1
.Chorus x1
.End 1 x7
.End 2 x1

--------------------------------------------------------------------------------------------------------------

08 Best For You

Riff 1:

G:--------------------------
D:--------------------------
A:---555555555-/13*-3-333---
E:--------------------------

*Thirteen

Riff 2:

G:------------------------
D:------------------------
A:---55555555-111-3-333---
E:------------------------

Riff 3:

G:-----------------------
D:------------55555555---
A:---88888888------------
E:-----------------------

Riff 4:

G:----------------------------------------
D:------------55555555-7777777777777--7---
A:---88888888-----------------------------
E:----------------------------------------

The order is:
.Riff 1 x4
.Riff 2 x4
.Riff 3 x1
.Riff 1 x2
.Riff 4 x1
.Riff 1 x2
.Riff 2 x4
.Riff 3 x1
.Riff 1 x2
.Riff 4 x1
.Riff 2 x17

--------------------------------------------------------------------------------------------------------------

09 Suffer

Intro:

G:-----------------------------------------
D:-----------------------------------------
A:-----------------------------------------
E:---5---5---5---5---5---5---55555-0-1-3---

Verse:

G:----------------------------------------------------------------------------------
D:----------------------------------------------------------------------------------
A:--------------33-55-77-8-88888888-77-55-33------------22-33-55--------------------
E:---5-55555555------------------------------5-55555555----------1-1111111-111111---x1

G:----------------------------------------------------------------
D:----------------------------------------------------------------
A:---------------22-33-55------------------------------22-33-55---
E:---3-333333-55----------5-5555555-555555-3-333333-55------------x1

Chorus 1:

G:----------------------   ---------------------------------------
D:----------------------   ---------------------------------------
A:----------------------   ---------------------------------------
E:---1---0---5-555555---x3 ---1-1111111-111111-0-0000000-000000---x1

Pre-Verse:

G:-------------------------
D:-------------------------
A:-------------------------
E:---5---5---5---5-0-1-3---

Bridge:

G:----------------------    ------------------------
D:----------------------    ------------------------
A:----------------------    ------------------------
E:---0-0000000-000000---x11 ---0-000000-1-11-3333---x1

G:----------------------------------------------------------------------------------
D:----------------------------------------------------------------------------------
A:--------------33-55-77-8-88888888-77-55-33------------22-33-55--------------------
E:---5-55555555------------------------------5-55555555----------1-1111111-111111---x1

G:----------------------------------------------------------------
D:----------------------------------------------------------------
A:---------------22-33-55------------------------------22-33-55---
E:---3-333333-55----------5-5555555-555555-3-333333-55------------x1

Chorus 2:

G:----------------------   ---------------------------------------   ----------------------------------------
D:----------------------   ---------------------------------------   ----------------------------------------
A:----------------------   ---------------------------------------   ----------------------------------------
E:---1---0---5-555555---x3 ---1-1111111-111111-0-0000000-000000---x1 ---1-1111111-111111-0-0000000-00-3333--x1

End:

G:---------------------------------------------   ---------------
D:---------------------------------------------   ---------------
A:--------------33-55-77-8-88888888-77-55-33---   ---------------
E:---5-55555555--------------------------------x3 ---5-55--3-5---x1

The order is:
.Intro x1
.Verse x1
.Chorus 1 x1
.Pre-Verse x1
.Verse x1
.Chorus x1
.Bridge x1
.Chorus 2 x1
.End x1

--------------------------------------------------------------------------------------------------------------

10 Delirium Of Disorder

Riff 1:

G:----------------------
D:----------------------
A:----------------------
E:---3-55555-3-5555-6---

Riff 2:

G:------------------------
D:------------------------
A:------------------------
E:---3-33-1-11-0-000000---

Riff 3:

G:--------------------------------------------------------------------------
D:--------------------------------------------------------------------------
A:--------------------------------------------------------------------------
E:---5-5555555-5555555-5555555-5555-33-1-1111111-1111-33-5-5555555-555555---

Riff 4:

G:---------------
D:---------------
A:---------------
E:---5-5555-33---

Riff 5:

G:------------------
D:------------------
A:------------------
E:---5-5555-33-55---

The order is:
.Riff 1 x3
.Riff 2 x1
.Riff 1 x3
.Riff 2 x1
.Riff 3 x2
.Riff 1 x5
.Riff 2 x1
.Riff 1 x3
.Riff 2 x1
.Riff 4 x8
.Riff 3 x2
.Riff 1 x5
.Riff 2 x1
.Riff 1 x3
.Riff 2 x1
.Riff 1 x3
.Riff 2 x1
.Riff 1 x3
.Riff 2 x1
.Riff 5 x1

--------------------------------------------------------------------------------------------------------------

11 Part II (The Number Game)

Intro:

G:----------------------   -----------------------
D:----------------------   -----------------------
A:----------------------   ------------5-555555---
G:---0-0000000-000000---x5 ---3-333333------------x1

Verse 1:

G:-------------------------------------------   -----------------------------------------------
D:-------------------------------------------   ------------------------------------55---------
A:---7-7777-55-7-7777-55-3-333333-5-555555---   ---7-7777-55-7-7777-55-7-7777-55-77----77-55---
E:-------------------------------------------x1 -----------------------------------------------x1

Chorus 1:

G:------------------------------------------------------------------------------------
D:----------------------------------55------------------------------------------------
A:---3-333333-5-555555-7-7777-55-77----77-55-3-3333-22----------5-5555-00-5-5555-00---
E:-----------------------------------------------------3-333333-----------------------x1

G:-----------------------   ---------------   ---------------------------------------
D:-----------------------   ---------------   ---------------------------------------
A:---3-333333-5-555555---   ---7-7777-55---   ---3-3333333-333333-2-2222222-222222---
E:-----------------------x1 ---------------x4 ---------------------------------------x1

Pre-Verse:

G:----------------------   -----------------------
D:----------------------   -----------------------
A:----------------------   ------------5-555555---
E:---0-0000000-000000---x3 ---3-333333------------x1

Verse 2:

G:-------------------------------------------   -----------------------------------------------
D:-------------------------------------------   ------------------------------------55---------
A:---7-7777-55-7-7777-55-3-333333-5-555555---   ---7-7777-55-7-7777-55-7-7777-55-77----77-55---
E:-------------------------------------------x1 -----------------------------------------------x1

G:-------------------------------------------   -----------------------------------------------
D:-------------------------------------------   ------------------------------------55-77-99---
A:---7-7777-55-7-7777-55-3-333333-5-555555---   ---7-7777-55-7-7777-55-7-7777-55-77------------
E:-------------------------------------------x1 -----------------------------------------------x1

Chorus 2:

G:------------------------------------------------------------------------------------
D:-------------------------------------------------------------------------44---------
A:---3-333333-5-555555-7-7777-55-7-7777-55-3-3333-22----------5-5555-00-55----55-00---
E:---------------------------------------------------3-333333-------------------------x1

G:-----------------------   ---------------   ------------------------------------------------
D:-----------------------   ---------------   ------------------------------------2-44-55-7---
A:---3-333333-5-555555---   ---7-7777-55---   ---77-55-33-22-3-3333333-333333-2-5-------------
E:-----------------------x1 ---------------x3 ------------------------------------------------X1

Verse 3:

G:-------------------------------------------   -----------------------------------------------
D:-------------------------------------------   ------------------------------------77---------
A:---9-9999-77-9-9999-77-5-555555-7-777777---   ---9-9999-77-9-9999-77-9-9999-77-99----99-77---
E:-------------------------------------------x1 -----------------------------------------------x1

G:-------------------------------------------   -----------------------------------------------
D:-------------------------------------------   -----------------------------------------------
A:---9-9999-77-9-9999-77-5-555555-7-777777---   ---9-9999-77-9-9999-77-9-9999-77-99-77-55-44---
E:-------------------------------------------x1 -----------------------------------------------x1

Chorus 3:

G:----------------------------------------------------------------   ---------------   --------------
D:----------------------------------77----------------------------   ---------------   --------------
A:---5-555555-7-777777-9-9999-77-99----99-77-5-5555-44-0-000000---   ---7-7777-55---   ---77777777---
E:----------------------------------------------------------------x1 ---------------x3 --------------x1

G:---------------------------------------------------------------------------------
D:------------------------------------77-------------------------------------------
A:---9-9999-77-9-9999-77-9-9999-77-99----99-77-5-5555555-555555-4-4444444-444444---
E:---------------------------------------------------------------------------------x1

End:

G:--------------   -------
D:--------------   -------
A:---9-999-77---   ---9---
E:--------------x3 -------x1

The order is:
.Intro x1
.Verse 1 x2
.Chorus 1 x1
.Pre-Verse x1
.Verse 2 x1
.Chorus 2 x1
.Verse 3 x1
.Chorus 3 x1
.End x1

--------------------------------------------------------------------------------------------------------------

12 What Can You Do?

Verse 1:

G:-----------------------------------------------------------------------------------
D:-----------------------------------------------------------------------------------
A:---5-55555----------7-77-5-77-5-7-77-5-7-5-----5-55555-----------------------------
E:-----------5-555555------------------------7-5---------5-55555-0-0000000-0000000---x1

G:----------------------------------------------------------------------------------------------
D:-------------------------------5------------55------------------------------------------------
A:-----------5-555555--------5-7----------5-7----5-55555----------5-77-5-77-5-77-5-77-5-7-5-7---
E:---3-33333----------5-55-8-------5-55-8----------------5-555555-------------------------------x1

Chorus 1:

G:--------------------------------------------------------------------------------------------------
D:----------------------------------------------------------------------------33----------55--------
A:--------555-------------------555-------5/7-5----------555---------------33----33----55----55-----
E:---3333-----5-5555-3-5-7-3333-----0-000-------7-5-3333-----3-33-55555-11----------33----------5---

Bridge:
 
G:--------------   -------------   ---------------------------   -------------------------------
D:--------------   -------------   ---------------------------   ---------33----------55--------
A:--------------   -------------   --------------0-2-3-5555---   ------33----3-3---55----55-----
E:---3-3-3-35---x3 ---3-3-3-3---x1 ---55555555-3--------------x8 ---11----------33----------5---x1

Chorus 2:


G:------------------------------------------------------------------------   -------------------------------
D:------------------------------------------------------------------------   ---------33----------55--------
A:--------555-------------------555-------5/7-5----------555--------------   ------33----33----55----55-----
E:---3333-----5-5555-3-5-7-3333-----0-000-------7-5-3333-----3-33-55555---x1 ---11----------33----------5---x2

End:

G:-----------------------------------------------------------------------------------
D:-----------------------------------------------------------------------------------
A:---5-55555----------7-77-5-77-5-77-5-77-5-7-5-----5-55555--------------------------
E:-----------5-555555---------------------------7-5---------5-5555555-000000000000---

The order is:
.Verse x1
.Chorus 1 x1
.-----------
.Verse x1
.Chorus 1 x1
.-----------
.Bridge x1
.-----------
.Verse x1
.Chorus 2 x1
.-----------
.End x1

--------------------------------------------------------------------------------------------------------------

13 Do What You Want

Intro/Pre-Verse:

G:-------------------------
D:-------------------------
A:-------33333-----55555---
E:---0-0-------3-3---------

Verse 1:

G:-----------------------------------------
D:-----------------------------------------
A:------------3-333333----------5-555555---
E:---0-000000----------3-333333------------

Chorus:

G:-------------------------   ------------------------------------------
D:-------------------------   ------------------------------------------
A:---3-33-5-55-7-7777-55---   ---3-3333333-333333-2-22222222-00---------
E:-------------------------x3 ----------------------------------33-22---x1

Verse 1:

G:-----------------------------------------   --------------------------------------------
D:-----------------------------------------   --------------------------------------------
A:------------3-333333----------5-555555---   ------------3-333333----------55-33-55-66---
E:---0-000000----------3-333333------------x3 ---0-000000----------3-333333---------------x1

Bridge:

G:---------------------------
D:---------------------------
A:---7-77-7-77-7-77-7-77-7---
E:---------------------------

End:

G:-------
D:-------
A:---7---
E:-------

The order is:
.Intro x4
.Verse 1 x4
.Chorus x1
.Pre-Verse x4
.Verse 2 x1
.Bridge x1
.Chorus x1
.Pre-Verse x3
.End x1

--------------------------------------------------------------------------------------------------------------

14 Part IV (The Index Fossil)

Intro:

G:-----------------------
D:-----------------------
A:---5555555555555-------
E:-----------------3-3---

Verse:

G:-----------------------------------
D:-----------------------------------
A:-----------3--5-----------3--------
E:---5-55555------3-5-55555----3-3---

Chorus 1:

G:-------------------------------------------   ----------------------------------------------------------
D:-------------------------------------------   ---------------------------------------5-5555555-555555---
A:---------------------5-55555555-33-22-00---   ---------------------5-555555-8-888888--------------------
E:---1-111111-3-333333-----------------------x2 ---1-111111-3-333333--------------------------------------x1

Bridge:

G:----------------------   ------------------------------------------------   ------------------------
D:----------------------   ------------------------------------------------   ------------------------
A:---5555555555555------   -------333-5-555-88-77--------------------------   ------------------------
E:-----------------33---x1 --5-55-----------------5-55-1-0-1-33-55-66-77---x2 ---5-55-111-3-3333333---x1
                                  
G:--------------------------------
D:--------------------------------
A:------------5555555555555-------
E:---5-55-111---------------3-3---x1

Chorus 2:

G:-------------------------------------------   ---------------------------------------------------------
D:-------------------------------------------   ---------------------------------------5-5555555-3-------
A:---------------------5-55555555-33-22-00---   ---------------------5-555555-8-888888-------------5-3---
E:---1-111111-3-333333-----------------------x2 ---1-111111-3-333333-------------------------------------x1

End:

G:-------
D:-------
A:-------
E:---5---

The order is:
.Intro x1
.Verse x6
.Chorus 1 x1
.Verse x6
.Chorus 1 x1
.Verse x1
.Bridge x1
.Verse x2
.Chorus 2 x1
.Verse x2
.End x1

--------------------------------------------------------------------------------------------------------------

15 Pessimistic Lines

Intro:

G:--------------------------------------------------   ---------------
D:--------------------------------------------------   ---------------
A:----------7------------5-555--------7-----5-4-----   ---------------
E:---2-2-5--------2-2-5--------2-2-5------------7---x1 ---2-2222-00---x4

Verse:

G:--------------------------------------------------------------   ---------------
D:--------------------------------------------------------------   ---------------
A:----------------------------------44-55-7-77777777-55-44------   ---------------
E:---2-2222222-2222-44-5-5555555-55------------------------77---x1 ---2-2222-00---x2

Chorus:

G:--------------------------------------------------   ---------------
D:--------------------------------------------------   ---------------
A:----------7-777--------5-555--------7-----5-4-----   ---------------
E:---2-2-5--------2-2-5--------2-2-5------------7---x1 ---2-2222-00---x2

Bridge:

G:--------------------------------------------------------------   ---------------
D:--------------------------------------------------------------   ---------------
A:----------------------------------44-55-7-77777777-55-44------   ---------------
E:---2-2222222-2-2-----5-5555555-55------------------------77---x1 ---2-2222-00---x2

G:--------------------------------------------------------------   ---------------
D:--------------------------------------------------------------   ---------------
A:----------------------------------44-55-7-77777777-55-44------   ---------------
E:---2-2222222-2222-44-5-5555555-55------------------------77---x1 ---2-2222-00---x2

End:

G:----------------------------------------------------
D:---------------------------------------------------- 
A:----------7-777--------5-555--------7-----5-4-------
E:---2-2-5--------2-2-5--------2-2-5------------7-2---

The order is:
.Intro x1
.Verse x2
.Chorus x2
.Bridge x1
.Chorus x2
.End x1





Tab by: mdc_ivan




            
            
Suggest correction
Creating personal tab
Creating personal tab
You can edit any tab online and save it as your Personal.

You can edit, replace or remove any tab part or add personal notes – all changes will be seen only by you.

Personal tabs can be accessed anytime from any device, even offline.
Learn more »
Give kudos to tab author, rate the tab!
1 2 3 4 5
comments
print report bad tab
1 comment total.
0 reply
Skankman82 461 Feb 27, 2016 10:01 PM

It's a perfect job.

guest
You may want to rate the tab now too:
select rating
Wanna post a correction for this tab? Suggest correction