Oops, an error
Loading. Please wait.

Supersonic bass

version 1
version 1

Whole song

Interactive

13 views 1 this week
no commentswrite comment
1 2 3 4 5
3 more votes to show rating
add to favorites
×
Save as Personal and add changes to this tab that will be seen only by you. Learn more ›
×
You can save this tab as Personal to edit and correct it or add notes. All changes will be seen only by you. Learn more »
launch autoscroll
font size
0
reset
guitar tuner
edit
Autoscroll
slow
fast
+/-
esc
set tempo
stop
Artist: Bad Religion
Song: Supersonic
Album: The Process Of Belief (2002)

Bass (E A D G): - 'Jay Bentley - Clean, Pick'

- This tab may not be 100% correct, suggestions/corrections welcome

[Intro]
4/4
     E   E   S S E   E   S E   S E        E   E   S S E   E   S E   S E     (x2)
G||------------------------------------|------------------------------------|
D||o-----------------------------------|-----------------------------------o|
A||o-7---7---7-7-7---10--7-7---7-7-----|-----------------------------------o|
E||------------------------------------|--8---8---8-8-8---7---7-7---7-7-----|

[Verse 1]
    E   E   S S E   E   S E   S E        E   E   S S E   E   S E   S E     (x4)
G|------------------------------------|------------------------------------|
D|o-----------------------------------|-----------------------------------o|
A|o-----------------------------------|--3---3---3-3-3---2---2-2---2-2----o|
E|--0---0---0-0-0---3---0-0---0-0-----|------------------------------------|

[Chorus 1]
    E   E   S S E   E   S E   S E        E   E   S S E   E   S E   S E     (x2)    
G|------------------------------------|------------------------------------|
D|o-----------------------------------|-----------------------------------o|
A|o-3---3---3-3-3---5---5-5---5-5-----|-----------------------------------o|
E|------------------------------------|--3---3---3-3-3---2---2-2---2-2-----|

    E   E   S S E   E   S E   S E        E   E   E   E   E   S E   S E   
G|------------------------------------|------------------------------------|
D|------------------------------------|------------------------------------|
A|--3---3---3-3-3---5---5-5---5-5-----|------5-----------------------------|
E|------------------------------------|--3-------3---3---2---2-2---2-2-----|

    E   E   S S E   E   S E   S E        E   S E   S E   E   S E   S E   
G|------------------------------------|------------------------------------|
D|------------------------------------|------------------------------------|
A|--3---3---3-3-3---5---5-5---5-5-----|------------------------------------|
E|------------------------------------|--3---3-3---3-3---3---3-3---3-3-----|

    E   E   S S E   E   E   E   E
G|------------------------------------|
D|------------------------------------|
A|----------------------2---3---5-----|
E|--3---3---3-3-3---3-----------------|

[Post-Chorus]
     E   E   S S E   E   S E   S E        E   E   S S E   E   S E   S E     (x2)
G|------------------------------------|------------------------------------|
D|o-----------------------------------|-----------------------------------o|
A|o-7---7---7-7-7---10--7-7---7-7-----|-----------------------------------o|
E|------------------------------------|--8---8---8-8-8---7---7-7---7-7-----|

[Verse 2]
    E   E   S S E   E   S E   S E        E   E   S S E   E   S E   S E
G|------------------------------------|------------------------------------|
D|------------------------------------|------------------------------------|
A|------------------------------------|--3---3---3-3-3---2---2-2---2-2-----|
E|--0---0---0-0-0---3---0-0---0-0-----|------------------------------------|

    E   E   S S E   E   S E   S E        E   E   S S E   E   E   E   E
G|------------------------------------|------------------------------------|
D|------------------------------------|------------------------------------|
A|------------------------------2-----|--3---3---3-3-3---2---2---2---2-----|
E|--0---0---0-0-0---3---0-0---0-------|------------------------------------|

    E   E   S S E   E   S E   S E        E   E   S S E   E   S E   S E     (x2)
G|------------------------------------|------------------------------------|
D|o-----------------------------------|-----------------------------------o|
A|o-----------------------------------|--3---3---3-3-3---2---2-2---2-2----o|
E|--0---0---0-0-0---3---0-0---0-0-----|------------------------------------|

[Chorus 2]
    E   E   S S E   E   S E   S E        E   E   S S E   E   S E   S E     (x2)    
G|------------------------------------|------------------------------------|
D|o-----------------------------------|-----------------------------------o|
A|o-3---3---3-3-3---5---5-5---5-5-----|-----------------------------------o|
E|------------------------------------|--3---3---3-3-3---2---2-2---2-2-----|

    E   E   S S E   E   S E   S E        E   E   E   E   E   S E   S E   
G|------------------------------------|------------------------------------|
D|------------------------------------|------------------------------------|
A|--3---3---3-3-3---5---5-5---5-5-----|------5-----------------------------|
E|------------------------------------|--3-------3---3---2---2-2---2-2-----|

    E   E   S S E   E   S E   S E        E   E   S S E   E   E   S S E
G|------------------------------------|------------------------------------|
D|------------------------------------|------------------------------------|
A|--3---3---3-3-3---5---5-5---5-5-----|------------------------------------|
E|------------------------------------|--3---3---3-3-3---3---3---3-3-3-----|

    Q       Q       Q       Q
G|------------------------------------|
D|--------------------------5---------|
A|----------2-------5-----------------|
E|--3---------------------------------|

[Bridge]
    E   E   S S E   E   S E   S E        E   E   S S E   E   S E   S E
G|------------------------------------|------------------------------------|
D|------------------------------------|------------------------------------|
A|------------------------------------|------------------------------------|
E|--0---0---0-0-0---0---0-0---0-0-----|--0---0---0-0-0---0---0-0---0-0-----|

    E   E   S S E   E   S E   S E        E   E   E   E   E   E   E   E
G|------------------------------------|------------------------------------|
D|------------------------------------|------4---5---7---5---4-------------|
A|--5---5---5-5-5---5---5-5---5-0-----|--5-----------------------5---0-----|
E|------------------------------------|------------------------------------|

    E   E   S S E   E   S E   S E        E   E   S S E   E   E   Q
G|------------------------------------|------------------------------------|
D|------------------------------------|------------------------------------|
A|------------------------------------|------------------------------------|
E|--3---3---3-3-3---3---3-3---3-3-----|--3---3---3-3-3---3---3---5---------|

    E   E   S S E   E   S E   S E        Q       Q       Q       Q
G|------------------------------------|------------------------------------|
D|------------------------------------|------------------------------------|
A|--2---2---2-2-2---2---2-2---2-2-----|--2-------0-------------------------|
E|------------------------------------|------------------3-------2---------|

    E   E   S S E   E   S E   S E        E   E   E   E   E   E   E   E
G|------------------------------------|------------------------------------|
D|------------------------------------|------------------------------------|
A|------------------------------------|------------------2---2---7---7-----|
E|--0---0---0-0-0---0---0-0---0-0-----|--0---0---3---3---------------------|

    E   E   S S E   E   S E   S E        E   E   S S E   E   S E   S E
G|------------------------------------|------------------------------------|
D|------------------------------------|------------------------------------|
A|--5---5---5-5-5---5---5-5---5-5-----|--5---5---5-5-5---5---5-5---5-5-----|
E|------------------------------------|------------------------------------|

    E   E   S S E   E   S E   S E        E   E   S S E   E   S E   S E
G|------------------------------------|------------------------------------|
D|------------------------------------|------------------------------------|
A|--3---3---3-3-3---3---3-3---3-3-----|--3---3---3-3-3---3---3-3---3-3/----|
E|------------------------------------|------------------------------------|

    E   E   S S E   E   E   S S E        E   E   S S E   E   E   S S E
G|------------------------------------|------------------------------------|
D|------------------------------------|------------------------------------|
A|--5---5---5-5-5---5---5---5-5-5-----|--5---5---5-5-5---6---6---6-6-6-----|
E|------------------------------------|------------------------------------|

     E   E   S S E   E   S E   S E        E   E   S S E   E   S E   S E     (x2)
G|------------------------------------|------------------------------------|
D|o-----------------------------------|-----------------------------------o|
A|o-7---7---7-7-7---10--7-7---7-7-----|-----------------------------------o|
E|------------------------------------|--8---8---8-8-8---7---7-7---7-7-----|

[Chorus 3]
    E   E   S S E   E   S E   S E        E   E   S S E   E   S E   S E     (x3)    
G|------------------------------------|------------------------------------|
D|o-----------------------------------|-----------------------------------o|
A|o-3---3---3-3-3---5---5-5---5-5-----|-----------------------------------o|
E|------------------------------------|--3---3---3-3-3---2---2-2---2-2-----|

    E   E   S S E   E   S E   S E        E   S E   S E   E   S E   S E   
G|------------------------------------|------------------------------------|
D|------------------------------------|------------------------------------|
A|--3---3---3-3-3---5---5-5---5-5-----|------------------------------------|
E|------------------------------------|--3---3-3---3-3---3---3-3---3-3-----|

    E   E   S S E   E   E   E   E
G|------------------------------------|
D|------------------------------------|
A|--------------------------3---5-----|
E|--3---3---3-3-3---3---3-------------|

[Outro]
    E   E   S S E   E   S E   S E        E   E   S S E   E   E   S S E
G|------------------------------------|------------------------------------|
D|------------------------------------|------------------------------------|
A|--7---7---7-7-7---10--7-7---7-7-----|------------------------------------|
E|------------------------------------|--8---8---8-8-8---7---7---7-7-7-----|

    E
G|------------------------------------||
D|------------------------------------||
A|--7\--------------------------------||
E|------------------------------------||


************************************

|  \   Slide down
|  /   Slide up
|  S   Sixteenth note
|  E   Eighth note
|  Q   Quarter note
|o o|  Reprise

************************************
Suggest correction
Creating personal tab
Creating personal tab
You can edit any tab online and save it as your Personal.

You can edit, replace or remove any tab part or add personal notes – all changes will be seen only by you.

Personal tabs can be accessed anytime from any device, even offline.
Learn more »
Give kudos to tab author, rate the tab!
1 2 3 4 5
comments
print report bad tab
guest
You may want to rate the tab now too:
select rating
Wanna post a correction for this tab? Suggest correction