Oops, an error
Loading. Please wait.

Supersonic tab

version 3
version 3

Whole song

Interactive

7,872 views 6 this week
1 commentread comment
1 2 3 4 5
x 3
add to favorites
×
Save as Personal and add changes to this tab that will be seen only by you. Learn more ›
×
You can save this tab as Personal to edit and correct it or add notes. All changes will be seen only by you. Learn more »
launch autoscroll
font size
0
reset
how to read this tab
guitar tuner
edit
Autoscroll
slow
fast
+/-
esc
set tempo
stop
-----------------------------------------------------------------------------------------
                              SUPERSONIC - Bad Religion
-----------------------------------------------------------------------------------------

By: Terry (BadReligion_Believer5@hotmail.com)

Intro
e|-------------------------------------------------------------------------|
B|-------------------------------------------------------------------------|
G|-------------------------------------------------------------------------|
D|--9-9-9-9--/--12--\--9--/--12--/--14--\--12--/--14--/--15--\--14--\--12--|
A|--7-7-7-7--/--10--\--7--/--10--/--12--\--10--/--12--/--13--\--12--\--10--|
E|-------------------------------------------------------------------------|

e|-----------------------------------------------------------|
B|-----------------------------------------------------------|
G|-----------------------------------------------------------|
D|--9-9-9-9--/--12--\--9--/--12--/--15--\--14--\--12---------|
A|--7-7-7-7--/--10--\--7--/--10--/--13--\--12--\--10--9~~~~--|
E|----------------------------------------------------7~~~~--|

Verse
e|----------------------------------------------|
B|----------------------------------------------|
G|----------------------------------------------|
D|--9-9-9-9--/--12--\--9------------------------|
A|--7-7-7-7--/--10--\--7--10-10-10-10--9-9-9-9--|
E|-------------------------8--8--8--8--7-7-7-7--|

Chorus
e|--------------------------------------|
B|--------------------------------------|
G|--------------------------------------|
D|--5-5-5-5--7-7-7-7--------------------|
A|--3-3-3-3--5-5-5-5--5-5-5-5--4-4-4-4--|
E|--------------------3-3-3-3--2-2-2-2--|

Quasi-Solo
e|--12^-12^-12^-12^-12^-12^-12^-12^--\--11--|
B|------------------------------------------|
G|------------------------------------------|
D|------------------------------------------|
A|------------------------------------------|
E|------------------------------------------|

Bridge
e|------------------------------------------------------|
B|------------------------------------------------------|
G|------------------------------------------------------|
D|--9-9-9-9-9-9--7-7-7-7-7-7---------------4-4-4-4-4-4--|
A|--7-7-7-7-7-7--5-5-5-5-5-5--5-5-5-5-5-5--2-2-2-2-2-2--|
E|----------------------------3-3-3-3-3-3---------------|

e|-----------------------------------------------------------|
B|-----------------------------------------------------------|
G|-----------------------------------------------------------|
D|--9-9-9-9-9-9--7-7-7-7-7-7--5-5-5-5-5-5--7-7-7-7--8-8-8-8--|
A|--7-7-7-7-7-7--5-5-5-5-5-5--3-3-3-3-3-3--5-5-5-5--6-6-6-6--|
E|-----------------------------------------------------------|

Outro
e|-----------------------------------------------------------------------------------|
B|-----------------------------------------------------------------------------------|
G|-----------------------------------------------------------------------------------|
D|--9-9-9-9--/--12--\--9--/--12--/--14--\--12--/--14--/--15--\--14--\--12--\--9\\\\--|
A|--7-7-7-7--/--10--\--7--/--10--/--12--\--10--/--12--/--13--\--12--\--10--\--7\\\\--|
E|-----------------------------------------------------------------------------------|

The long awaited "Supersonic!!!!!!"
It me seeing them live to figure this song out, and now, I feel like an ass!
After all those difficult fucking songs on this albums I've figured out...
Bah!...

But all I gotta say now is that........


BAD RELIGION IS THE GREATEST

            
            
Suggest correction
Creating personal tab
Creating personal tab
You can edit any tab online and save it as your Personal.

You can edit, replace or remove any tab part or add personal notes – all changes will be seen only by you.

Personal tabs can be accessed anytime from any device, even offline.
Learn more »
Give kudos to tab author, rate the tab!
1 2 3 4 5
comments
print report bad tab
1 comment total.
0 reply
Seanith 37 Mar 03, 2009 08:53 AM

I'm pretty sure the intro would be played as octaves...

guest
You may want to rate the tab now too:
select rating
Wanna post a correction for this tab? Suggest correction