Oops, an error
Loading. Please wait.

The Same Person Tab

version 1
version 1

Whole song

Interactive

905 views 1 this week
no commentswrite comment
1 2 3 4 5
please rate
add to favorites
launch autoscroll
font size
0
reset
how to read this tab
guitar tuner
Autoscroll
slow
fast
+/-
esc
set tempo
stop
Help us to improve Ultimate-Guitar.com Take our survey!
×
------------------------------------------------------------------------------- 
                      THE SAME PERSON - Bad Religion
------------------------------------------------------------------------------- 

By: Terry (BadReligion_Believer5@hotmail.com) 

Intro 
e|-----------------------------------------------------| 
B|-----------------------------------------------------| 
G|-----------------------------------------------------| 
D|-------------7\4-4-4-4-------------7-7-7-7-----------| 
A|--7\2-2-2-2--5\2-2-2-2--7\5-5-5-5--5-5-5-5--7-7-7-7--| 
E|--5\0-0-0-0-------------5\3-3-3-3-----------5-5-5-5--| 

e|---------------------------------------| 
B|---------------------------------------| 
G|---------------------------------------| 
D|-----------7\4-4~~-----------7~~--9~~--| 
A|--7\2-2~~--5\2-2~~--7\5-5~~--5~~--7~~--| 
E|--5\0-0~~-----------5\3-3~~------------| 

Verse 
e|-----------------------------------------------| 
B|-----------------------------------------------| 
G|-----------------------------------------------| 
D|-----------4-4-4-4-----------7-7-7-7-----------| 
A|--2-2-2-2--2-2-2-2--5-5-5-5--5-5-5-5--7-7-7-7--| 
E|--0-0-0-0-----------3-3-3-3-----------5-5-5-5--| 
......................p.m..................... 

e|-----------------------------------------------| 
B|-----------------------------------------------| 
G|-----------------------------------------------| 
D|-----------4-4-4-4-----------7-7-7-7--9-9-9-9--| 
A|--4-4-4-4--2-2-2-2--5-5-5-5--5-5-5-5--7-7-7-7--| 
E|--2-2-2-2-----------3-3-3-3--------------------| 

Chorus 
e|------------------------------------------------------------------| 
B|------------------------------------------------------------------| 
G|------------------------------------------------------------------| 
D|--4-4-4-4--2-2-2-2---------------4-4-4-4--2-2-2-2-----------------| 
A|--2-2-2-2--0-0-0-0--2h5-------2--2-2-2-2--0-0-0-0--2h5-------2~~--| 
E|-------------------------5p3----------------------------5p3-------| 

e|---------------------------------------------| 
B|---------------------------------------------| 
G|-------------------------7-7--9-9--7-7--6~~--| 
D|-----------7-7-7-----------------------------| 
A|--5-5-5-5--5-5-5--7-7-7--5-5--7-7--5-5--4~~--| 
E|--3-3-3-3---------5-5-5----------------------| 

Bridge 
e|--------------------------------------------------------------------------------| 
B|--------------------------------------------------------------------------------| 
G|--7-7--9-9--7-7--6----7-7--9-9--7-7--6----7-7--9-9--7-7--6----7-7--9-9--7-7--6--| 
D|--------------------------------------------------------------------------------| 
A|--5-5--7-7--5-5--4----5-5--7-7--5-5--4----5-5--7-7--5-5--4----5-5--7-7--5-5--4--| 
E|--------------------------------------------------------------------------------| 

e|--------------------------------------------------------------------------------------------|
B|--------------------------------------------------------------------------------------------|
G|--7-7--9-9--11-11--14----7-7--9-9--11-11--14----7-7--9-9--11-11--14----7-7--9-9--11-11--14--|
D|--------------------------------------------------------------------------------------------|
A|--5-5--7-7---9--9--12----5-5--7-7---9--9--12----5-5--7-7---9--9--12----5-5--7-7---9--9--12--|
E|--------------------------------------------------------------------------------------------|

e|-------------------------------------------------------| 
B|-------------------------------------------------------| 
G|--7h9^9^^--7h9^9^^--7h9^9^^-7h9^9^^--7h9^9^^--7h9^9^^--| 
D|-------------------------------------------------------| 
A|-------------------------------------------------------| 
E|-------------------------------------------------------| 

Outro 
e|---------------------------------------------------| 
B|---------------------------------------------------| 
G|--9-9-9-9--9\8-8-8-8--8/12-12-12-12--12/14-14\9~~--| 
D|---------------------------------------------------| 
A|--7-7-7-7--7\6-6-6-6--6/10-10-10-10--10/12-12\7~~--| 
E|---------------------------------------------------| 

e|----------------------2~~~~--| 
B|-----------------3~~---------| 
G|------------4~~--------------| 
D|-------4~~-------------------| 
A|--2~~------------------------| 
E|-----------------------------| 

===============================================================================
Suggest correction
Give kudos to tab author, rate the tab!
1 2 3 4 5
comments
print report bad tab
guest
You may want to rate the tab now too:
select rating
Wanna post a correction for this tab? Suggest correction