Oops, an error
Loading. Please wait.

The Same Person Tab

version 2
version 2

Whole song

Interactive

560 views 1 this week
no commentswrite comment
1 2 3 4 5
please rate
add to favorites
launch autoscroll
font size
0
reset
how to read this tab
guitar tuner
Autoscroll
slow
fast
+/-
esc
set tempo
stop
Help us to improve Ultimate-Guitar.com Take our survey!
×
Author
------------------------------------------------------------------------------- 
                      THE SAME PERSON - Bad Religion
------------------------------------------------------------------------------- 
By: the_davester (nirvanasongs@yahoo.com) 

SYMBOLS: 

/ Slide

|------| Repeat section 
|*----*| 
|------| 
|------| 
|*----*| 
|------| 

INTRO/POST-CHORUS: 
(these two parts have a real staccato feal, to play them you shouldn't let 
most of the notes ring very long) 

..let ring... 
e ||----------------------------------------|| 
B ||----------------------------------------|| 
G ||----------------------------------------|| 
D ||-----------7-------------------7--------|| 
A ||-9-7-7-7-7-5-9-9-9-9-7-5-5-5-5-5---7----|| 
E ||-7-5-5-5-5---7-7-7-7-5-3-3-3-3-----5----|| 

END OF INTRO: 
e ||-------------------------------------------|| 
B ||-------------------------------------------|| 
G ||-------------------------------------------|| 
D ||-----------7--------------7-7-7-7-9-9-9-9--|| 
A ||--9-5-5----5-7-7----7-5-5-5-5-5-5-7-7-7-7--|| 
E ||--7-3-3------5-5----5-3-3------------------|| 

VERSE (palm-mute the whole thing): 
e ||-----------------------------------------------------------------| 
B ||-----------------------------------------------------------------| 
G ||-----------------4-4-4-4-4-4-4-4-----------------7-7-7-7---------| 
D ||-2-2-2-2-2-2-2-2-4-4-4-4-4-4-4-4-5-5-5-5-5-5-5-5-7-7-7-7-7-7-7-7-| 
A ||-2-2-2-2-2-2-2-2-2-2-2-2-2-2-2-2-5-5-5-5-5-5-5-5-5-5-5-5-7-7-7-7-| 
E ||-0-0-0-0-0-0-0-0-----------------3-3-3-3-3-3-3-3---------5-5-5-5-| 
"You want prosperity..." 

e |-----------------------------------------------------------------|| 
B |-----------------------------------------------------------------|| 
G |-----------------4-4-4-4-4-4-4-4-----------------7-7-7-7-9-9-9-9-|| 
D |-4-4-4-4-4-4-4-4-4-4-4-4-4-4-4-4-5-5-5-5-5-5-5-5-7-7-7-7-9-9-9-9-|| 
A |-4-4-4-4-4-4-4-4-2-2-2-2-2-2-2-2-5-5-5-5-5-5-5-5-5-5-5-5-7-7-7-7-|| 
E |-2-2-2-2-2-2-2-2-----------------3-3-3-3-3-3-3-3-----------------|| 
"Somehow you just..." 

CHORUS: 
e ||-------------------------------------------| 
B ||*------------------------------------------| 
G ||-------------------------------------------| 
D ||---9--------7------------------9------7----| 
A ||*--9--------7------------------9------7----| 
E ||---7--------5------------------7------5----| 
| "Same person we're not the same person" 
| 
e ||-------------------------------------------| 
B ||-------------------------------------------| 
G ||-------------------------------------------| 
D ||-------------------------------------------| 
A ||--------------------5-5-5------------------| 
E ||-------------5--7---------7----------------| 

e |-----------------------------------------------|| 
B |-----------------------------------------------|| 
G |---------7---------------7-7-9-9-7-7-6-6-------|| 
D |-5-3-3-3-7-7-----9-9-9-9-----------------7-7---|| 
A |-5-3-3-3-5-7-----9-9-9-9-5-5-7-7-5-5-4-4-------|| 
E |-3-3-3-3---5-----7-7-7-7-----------------5-5---|| 

BRIDGE: 
e ||-------------------------|| 
B ||-------------------------|| 
G ||-------------------4-----|| 
D ||---5-------4-------4-----|| 
A ||---5-------4-------2-----|| 
E ||---3-------2-------------|| 

(second guitar) 
e ||--------------------------------------------------|-----------------|| 
B ||--------------------------------------------------|-----------------|| 
G ||-14-14-------14-14-12-12-14-14-------14-14-11-11--|-12/14-14-14-14--|| 
D ||-------14-14-------------------14-14--------------|-12/14-14-14-14--|| 
A ||--------------------------------------------------|-----------------|| 
E ||--------------------------------------------------|-----------------|| 

END: Bm 
e ||----------2--|| 
B ||--------3----|| 
G ||------4------|| 
D ||----4--------|| 
A ||--2----------|| 
E ||-------------|| 

SONG STRUCTURE 
Intro/Post-Chorus x2 
End of Intro 
Verse x2 
Chorus 
Post-Chorus 
Verse 
Chorus 
Post-Chorus 
Bridge x a bunch 
Verse 
Chorus x2 
Post-Chorus x2 
End 
===============================================================================
Suggest correction
What's this?
You can suggest a correction to this tab. Community and Mods will review your correction and vote to approve or reject it.
comments
We did not receive enough feedback on this tab! Please rate:
print report bad tab
1 2 3 4 5
guest
You may want to rate the tab now too:
select rating
Please do not post tabs as comments. Select "correction" instead!