Oops, an error
Loading. Please wait.

Tiny Voices Tab

version 1
version 1

Whole song

Interactive

3,284 views 6 this week
no commentswrite comment
1 2 3 4 5
excellent!
x 3
add to favorites
launch autoscroll
font size
0
reset
how to read this tab
guitar tuner
Autoscroll
slow
fast
+/-
esc
set tempo
stop
Help us to improve Ultimate-Guitar.com Take our survey!
×
Author
Intro
e|-------------------------------|
B|-------------------------------|
G|--5-3-5----------5-3-5---------|
D|--5-3-5-5-6------5-3-5-6-5-----|  x 4
A|--3-1-3-5-6------3-1-3-6-5-----|
E|--------3-4------------4-3-----| 
pickscrape around the second time
                                                                              
Mini solo at the beginning
e|--------------------------------------|
B|------------4-6---8b8b8b---6p4--------|
G|----5b5b5b--------------------h5------|
D|--------------------------------------|  x 2
A|--------------------------------------|
E|--------------------------------------|
                                                                              
Verse
e|--------------------------------------------------|
B|--------------------------------------------------|
G|-5555--------77777777--88888888-------------------|
D|-5555-6666---77777777--88888888---88888888--------|
A|-3333-6666---55555555--66666666---88888888--------|
E|------4444------------------------66666666--------|
                                                                              

e|-------------------------------------------------|
B|-------------------------------------------------|
G|-5555--------33333333----------------------------|
D|-5555-6666---33333333--33333333---55555555-------|
A|-3333-6666---11111111--33333333---55555555-------|
E|------4444-------------11111111---33333333-------|
                                                                              
Fill
e|--------------------------------|
B|--------------------------------|
G|-5-3-5---------5-3-5------------|
D|-5-3-5-5-6-----5-3-5-6-3--------| x 2
A|-3-1-3-5-6-----3-1-3-6-3--------|
E|-------3-4-----------4-5--------|
                                                                              
Verse 2
e|-----------------------------------------------------|
B|-----------------------------------------------------|
G|---------------55555555------------------5555-3333---|
D|-6666--5555----55555555----6666--5555----5555-3333---|
A|-6666--5555----33333333----6666--5555----3333-1111---|
E|-4444--3333----------------4444--3333----------------|
                                                                              

e|----------------------------------------------------|
B|----------------------------------------------------|
G|---------------55555555---------------33333333------|
D|-6666--5555----55555555----66666666---33333333------|
A|-6666--5555----33333333----66666666---11111111------|
E|-4444--3333----------------44444444-----------------|
                                                                              
Chorus
e|----------------------------------------------------|
B|----------------------------------------------------|
G|-88888888-3333-------------8888---------------------|
D|-88888888-3333--5555-6666--8888--888888----555555---| x 2
A|-66666666-1111--5555-6666--6666--888888----555555---|
E|----------------3333-4444--------666666----333333---|
                                                                              
Fill 1 
e|-------------------|
B|-------------------|
G|-88----------------|
D|-88-55-66--88------|
A|-66-55-66--88------|
E|----33-44--66------|
                                                                              
Fill 2
e|-------------------------------|
B|-------------------------------|
G|--5-3-5----------5-3-5---------|
D|--5-3-5-5-6------5-3-5-6-5-----| x 2
A|--3-1-3-5-6------3-1-3-6-5-----|
E|--------3-4------------4-3-----|
                                                                              
Verse
e|--------------------------------------------------|
B|--------------------------------------------------|
G|-5555--------77777777--88888888-------------------|
D|-5555-6666---77777777--88888888---88888888--------|
A|-3333-6666---55555555--66666666---88888888--------|
E|------4444------------------------66666666--------|
                                                                              

e|-------------------------------------------------|
B|-------------------------------------------------|
G|-5555--------33333333----------------------------|
D|-5555-6666---33333333--33333333---55555555-------|
A|-3333-6666---11111111--33333333---55555555-------|
E|------4444-------------11111111---33333333-------|
                                                                              
Solo
e|-----------------------------------------------------------------|
B|--4-4/9h11-9-11b/16b15--12-13b-----------------------------------|
G|-------------------------------4/12\4-8-10-8-10-11b-10-8b-8------|
D|------------------------------------------------------------12b--|
A|-----------------------------------------------------------------|
E|-----------------------------------------------------------------|
                                                                              
Play under solo
e|-------------------------------------------------------------------|
B|-------------------------------------------------------------------|
G|-------------------------------------------------------------------|
D|----------11111111--33333333-------------------88888888-777777777--|
A|-66666666-11111111--11111111-33333333-66666666-66666666-555555555--|
E|-44444444-xxxxxxxx-----------11111111-44444444---------------------|
   
Verse 2
e|-----------------------------------------------------|
B|-----------------------------------------------------|
G|---------------55555555------------------5555-3333---|
D|-6666--5555----55555555----6666--5555----5555-3333---|
A|-6666--5555----33333333----6666--5555----3333-1111---|
E|-4444--3333----------------4444--3333----------------|
                                                                              
e|----------------------------------------------------|
B|----------------------------------------------------|
G|---------------55555555---------------33333333------|
D|-6666--5555----55555555----66666666---33333333------|
A|-6666--5555----33333333----66666666---11111111------|
E|-4444--3333----------------44444444-----------------|
                                                                           
Chorus
e|----------------------------------------------------|
B|----------------------------------------------------|
G|-88888888-3333-------------8888---------------------|
D|-88888888-3333--5555-6666--8888--888888----555555---| x 2
A|-66666666-1111--5555-6666--6666--888888----555555---|
E|----------------3333-4444--------666666----333333---|

Post Chorus
e|-------------------------------------------------------------------|
B|-------------------------------------------------------------------|
G|-88888888----------66666666----------88888888----------33333333----|
D|-88888888-44444444-66666666-66666666-88888888-44444444-33333333----| 
A|-66666666-44444444-44444444-66666666-66666666-44444444-11111111----|
E|----------22222222----------44444444----------22222222-------------|
 
Outro                                                                             
e|-------------------------------|
B|-------------------------------|
G|--5-3-5----------5-3-5---------|
D|--5-3-5-5-6------5-3-5-6-5-----|  x 4
A|--3-1-3-5-6------3-1-3-6-5-----|
E|--------3-4------------4-3-----| 

e|--------------------------------------|
B|------------4-6---8b8b8b---6p4--------|
G|----5b5b5b--------------------h5------|
D|--------------------------------------|  x 2
A|--------------------------------------|
E|--------------------------------------|
Suggest correction
Give kudos to tab author, rate the tab!
1 2 3 4 5
comments
print report bad tab
guest
You may want to rate the tab now too:
select rating
Please do not post tabs as comments. Select "correction" instead!