Oops, an error
Loading. Please wait.

True North bass

version 1
version 1

Whole song

Interactive

22 views 1 this week
no commentswrite comment
1 2 3 4 5
3 more votes to show rating
add to favorites
×
Save as Personal and add changes to this tab that will be seen only by you. Learn more ›
×
You can save this tab as Personal to edit and correct it or add notes. All changes will be seen only by you. Learn more »
launch autoscroll
font size
0
reset
guitar tuner
edit
Autoscroll
slow
fast
+/-
esc
set tempo
stop
Artist: Bad Religion
Song: True North
Album: True North (2013)

Bass (E A D G): - 'Jay Bentley - Clean, Pick'

[Intro]
4/4
    E   S E (E.)    E   S E  (E.)        E   E   S S E   E   S S +Q        (x2)
G|------------------------------------|------------------------------------|
D|o-----------------------------------|-----------------------------------o|
A|o-----------------------------------|--6---6---6-6-6---8---5-5\---------o|
E|--3---3-3---------3---3-3-----------|------------------------------------|

    E   S E   S E   E   S E   S E        E   E   S S E   E   S E   S E
G|------------------------------------|------------------------------------|
D|------------------------------------|------------------------------------|
A|------------------------------------|--6---6---6-6-6---8---5-5---5-5-----|
E|--3---3-3---3-3---3---3-3---3-3-----|------------------------------------|

    E   S E   S E   E   S E   S E        E   E   S S E   E   S E   S E
G|------------------------------------|------------------------------------|
D|------------------------------------|------------------------------------|
A|------------------------------------|--6---6---6-6-6---8---5-5---5-5-----|
E|--3---3-3---3-1---3---3-3---3-3-----|------------------------------------|

    E   S S S S E   E   S E   S E        E   E   S S E   E   S E   S E
G|------------------------------------|------------------------------------|
D|--5---5-5-5-5-5---7---x-5---5-0-----|------------------------------------|
A|------------------------------------|--6---6---6-6-6---8---5-5---5-5-----|
E|------------------------------------|------------------------------------|

    E   S S S S E   E.    E.    E        E.    E.    E   E.    E.    E
G|------------------------------------|------------------------------------|
D|--5---5-5-5-5-7---8-----7-----8-----|--10----8-----7---8-----8-----7-----|
A|------------------------------------|------------------------------------|
E|------------------------------------|------------------------------------|


[Verse 1]
    E   E   E   E   E   S E   S E        E   E   E   E   E   S E   S E     (x3)
G|------------------------------------|------------------------------------|
D|o-----------------------------------|-----------------------------------o|
A|o-----------------------------------|--6---6---6---6---8---5-5---5-5----o|
E|--3---3---3---3---3---3-3---3-3-----|------------------------------------|

    E   E   E   E   E   S E   S E        E   E   E   E   E   S E   S E
G|------------------------------------|------------------------------------|
D|------------------------------------|------------------------------------|
A|------------------------------------|--6---6---6---6---8---5-5---5-0-----|
E|--3---3---3---3---3---3-3---3-3-----|------------------------------------|


[Pre-Chorus 1]
    E   E   E   E   E   E   E   E        E   E   E   E   E   E   E   E
G|------------------------------------|------------------------------------|
D|------------------------------------|------------------------------------|
A|--6---6---x---x---6---6---x---x-----|--8---8---x---x---------------------|
E|------------------------------------|------------------1---1---x---x-----|

    E   E   E   E   E   E   E   E        Q       E   E   E   E   E   E
G|------------------------------------|------------------------------------|
D|------------------------------------|--------------5---5/--7---8---7-----|
A|--6---6---x---x---6---6---x---x-----|--5-------5-------------------------|
E|------------------------------------|------------------------------------|

[Chorus 1]
    E   E   E   E   E   S E   S E        E   S E   S S S E   S E   S E
G|------------------------------------|------------------------------------|
D|------------------------------------|------------------------------------|
A|------------------------------------|--6---6-6---6---6-6---6-6---6-6-----|
E|--3---3---3---3---3---3-3---3-3-----|--------------6---------------------|

    E   E   S S E   E   S E   S E        E   S E   S S S E   S E   S E
G|------------------------------------|------------------------------------|
D|------------------------------------|------------------------------------|
A|--1---1---1-1-1---1---1-1---1-0-----|------------------------------------|
E|------------------------------------|--1---1---1-1-1---1---1-1---1-1-----|

    E   E   E   E   E.    E.    E        E   E   S S E   E   S E   S E
G|------------------------------------|------------------------------------|
D|------------------------------------|------------------------------------|
A|------------------------------------|--6---6---6-6-6---6---6-6---6-6-----|
E|--3---3---3---3---3-----5-----6-----|------------------------------------|

    E   E   S S E   E   S E   S E        E   S E   S E   E   S E   S E
G|------------------------------------|------------------------------------|
D|------------------------------------|------------------------------------|
A|--1---1---1-1-1---1---1-1---1-0-----|--5---5-5---5-5---5---5-5---5-5-----|
E|------------------------------------|------------------------------------|

    E   S S E   S S E   S S S S S S
G|------------------------------------|
D|------------------------------------|
A|--5---5-5-5---5-5-5---5-5-5-5-5-5---|
E|------------------------------------|

    E   S E   S E   E   S E   S E        E   S E   S E   E   S E   S E
G|------------------------------------|------------------------------------|
D|------------------------------------|------------------------------------|
A|------------------6---6-6---6-0-----|--1---1-1---1-0---------------------|
E|--3---3-3---3-3---------------------|------------------1---1-1---1-1/----|

    E   S E   S E   E   S E   S E        E   S E   S E   E   S E   S E
G|------------------------------------|------------------------------------|
D|------------------------------------|------------------------------------|
A|------------------6---6-6---6-0-----|--1---1-1---1-0---------------------|
E|--3---3-3---3-3---------------------|------------------1---1-1---1-3-----|

    E   S E   S E   E   S E   S E        E   S E   S E   E   S E   S E
G|------------------------------------|------------------------------------|
D|------------------------------------|------------------------------------|
A|------------------6---6-6---6-0-----|--1---1-1---1-0---------------------|
E|--3---3-3---3-3---------------------|------------------1---1-1---1-1-----|

                                       2/4                  4/4
    E   E   S S S S E   E   S S S S      E   E   S S S S      E  (Q.)        (H) 
G|------------------------------------|--------------------|------------------------------------|
D|------------------------------------|--------------------|------------------------------------|
A|------------------------------------|--------------------|------------------------------------|
E|--3---3---3-3-3-3-3---3---3-3-3-3---|--3---3---3-3-3-3---|--3---------------------------------|
PM          . . . .         . . . .   |          . . . .   |                                    |


[Verse 2]
    E   E   E   E   E   S E   S E        E   E   E   E   E   S E   S E     (x3)
G|------------------------------------|------------------------------------|
D|o-----------------------------------|-----------------------------------o|
A|o-----------------------------------|--6---6---6---6---8---5-5---5-5\---o|
E|--3---3---3---3---3---3-3---3-3/----|------------------------------------|

    E   E   E   E   E   S E   S E        E   E   E   E   E   S E   S E
G|------------------------------------|------------------------------------|
D|------------------------------------|------------------------------------|
A|------------------------------------|--6---6---6---6---8---5-5---5-0-----|
E|--3---3---3---3---3---3-3---3-3/----|------------------------------------|


[Pre-Chorus 2]
    E   E   S S S S E   E   S S S S      E   E   S S S S E   E   S S S S
G|------------------------------------|------------------------------------|
D|------------------------------------|------------------------------------|
A|--6---6---x-x-x-x-6---6---x-x-x-x---|--8---8---x-x-x-x-8---8---x-x-x-x---|
E|------------------------------------|------------------------------------|

    E   E   S S S S E   E   S S S S      E  (E)  E   E   E   E   E   E
G|------------------------------------|------------------------------------|
D|------------------------------------|------------------------------------|
A|--10--10--x-x-x-x-10--10--x-x-x-x---|--12------12--13--12--13--12--10\---|
E|------------------------------------|------------------------------------|


[Chorus 2]
    E   E.    S S S E   E   E   E        E   E.    S S S E   S E   S E
G|------------------------------------|------------------------------------|
D|------------------------------------|------------------------------------|
A|--------------------------3---5-----|--6---6-----6-6-x-6---6-6---6-6-----|
E|--3---3-----3-3-0-3---6-------------|------------------------------------|

    E   E.    S E   E   S E   S E        E   E   S S S S E   E   E   E
G|------------------------------------|------------------------------------|
D|------------------------------------|------------------------------------|
A|--1---1-----1-1---1---1-1---1-3-----|------------------------------------|
E|------------------------------------|--1---1---1-1-1-1-1---3---5---6-----|

    E   E.    S S S E   E   E   E        E   E.    S S S E   S E   S E
G|------------------------------------|------------------------------------|
D|------------------------------------|------------------------------------|
A|--------------------------3---5-----|--6---6-----6-6-x-6---6-6---6-0-----|
E|--3---3-----3-3-0-3---6-------------|------------------------------------|

    E   E   S S E   E   S E   S E        E   E   S S E   E   S E   S E
G|------------------------------------|------------------------------------|
D|------------------------------------|------------------------------------|
A|--1---1---1-1-1---1---1-1---1-3-----|--5---5---5-5-5---5---5-5---5-5-----|
E|------------------------------------|------------------------------------|

    E   S S E   S S E   S S S S S S
G|------------------------------------|
D|------------------------------------|
A|--5---5-5-5---5-5-5---5-5-5-5-5-5---|
E|------------------------------------|

    E   S E   S E   E   S E   S E        E   S E   S E   E   S E   S E
G|------------------------------------|------------------------------------|
D|------------------------------------|------------------------------------|
A|------------------6---6-6---6-0-----|--1---1-1---1-0---------------------|
E|--3---3-3---3-3---------------------|------------------1---1-1---1-1/----|

    E   S E   S E   E   S E   S E        E   S E   S E   E   S E   S E
G|------------------------------------|------------------------------------|
D|------------------------------------|------------------------------------|
A|------------------6---6-6---6-0-----|--1---1-1---1-0---------------------|
E|--3---3-3---3-3---------------------|------------------1---1-1---1-1-----|

    E   S E   S E   E   S E   S E        E   S E   S E   E   S E   S E
G|------------------------------------|------------------------------------|
D|------------------------------------|------------------------------------|
A|------------------6---6-6---6-0-----|--1---1-1---1-0---------------------|
E|--3---3-3---3-3---------------------|------------------1---1-1---1-1-----|

    E   S E   S E   E   S E   S E        E   E   E   E   E   E   E   E
G|------------------------------------|------------------------------------|
D|------------------------------------|------------------------------------|
A|------------------6---6-6---6-0-----|--1---1---1---0---------------------|
E|--3---3-3---3-3---------------------|------------------1---1---1---1-----|

                                       2/4
    E   E   S S S S E   E   S S S S      E   E   S S S S      E 
G|------------------------------------|--------------------|--------||
D|------------------------------------|--------------------|--------||
A|------------------5---5---5-5-5-5---|--10--10------------|--------||
E|--3---3---3-3-3-3-------------------|----------3-3-3-3---|--3-----||
PM          . . . .         . . . .   |          . . . .   |        ||

************************************

|  x   Dead note
| PM   Palm mute
|  \   Slide down
|  /   Slide up
|  S   Sixteenth note
|  E   Eighth note
|  Q   Quarter note
|  H   Half note
|  .   Dotted note
|  +   Add note value
| (N)  Rest
|o o|  Reprise

************************************

            
            
Suggest correction
Creating personal tab
Creating personal tab
You can edit any tab online and save it as your Personal.

You can edit, replace or remove any tab part or add personal notes – all changes will be seen only by you.

Personal tabs can be accessed anytime from any device, even offline.
Learn more »
Give kudos to tab author, rate the tab!
1 2 3 4 5
comments
print report bad tab
guest
You may want to rate the tab now too:
select rating
Wanna post a correction for this tab? Suggest correction