Oops, an error
Loading. Please wait.

Voice Of God Is Government Tab

1,111 views 3 this week
no commentswrite comment
1 2 3 4 5
please rate
add to favorites
launch autoscroll
font size
0
reset
how to read this tab
guitar tuner
Autoscroll
slow
fast
+/-
esc
set tempo
stop
Help us to improve Ultimate-Guitar.com Take our survey!
×
Author
Difficulty
novice
-------------------------------------------------------------------------------
                             SONG NAME - Band Name
-------------------------------------------------------------------------------
Tabbed by: BattyNatty
Email:pennywisebladerchick@hotmail.com

Tuning:standard

All righty, my first tab.  I learned this song by ear and thought I would tab it up for 
world cuz this band is just too awesome, and this song is just a little bit more awesome

Intro:  (palm muted) Neighbors . . .
e|--------------------------------------------------------------------------|
B|--------------------------------------------------------------------------|
G|-5-5-5-5-5-5-5-5----7-7-7-7-7-7-7-7----5-5-5-5-5-5-5-5----7-7-7-7-7-7-7-7-|
D|-5-5-5-5-5-5-5-5----7-7-7-7-7-7-7-7----5-5-5-5-5-5-5-5----7-7-7-7-7-7-7-7-|
A|-3-3-3-3-3-3-3-3----5-5-5-5-5-5-5-5----3-3-3-3-3-3-3-3----5-5-5-5-5-5-5-5-|
E|--------------------------------------------------------------------------|

(palm muted) Let us join today . . . It does this for a minute or so with the A note 
played open every couple of times
e|------------------------------------------------------------------|
B|------------------------------------------------------------------|
G|------------------------------------------------------------------|
D|-7-7-7-7-7-7-7-7----5-5----7-7-7----7-7-7-7-7-7-7----5-5----7-7-7-|
A--7-7-7-7-7-7-7-7----5-5----7-7-7----7-7-7-7-7-7-7----5-5----7-7-7-|
E|-5-5-5-5-5-5-5-5----3-3----5-5-5----5-5-5-5-5-5-5----3-3----5-5-5-|

The voice of God is Government . . .
e|-------------------------------------------------------------------x2-|
B|-------------------------------------------------------------------x2-|
G|-5-5-5----------------------------5-5-5----------------------------x2-|
D|-5-5-5----5-5-5----7-7-7-7-7-7----5-5-5----5-5-5----7-7-7-7-7-7-7--x2-|
A|-3-3-3----5-5-5----7-7-7-7-7-7----3-3-3----5-5-5----7-7-7-7-7-7-7--x2-|
E|----------3-3-3----5-5-5-5-5-5-------------3-3-3----5-5-5-5-5-5-5--x2-|

Verse: Can't you see what we believe in . . .

e|-------------------------------------x8-|
B|-------------------------------------x8-|
G|-------------------------------------x8-|
D|-7-7-7-7-7-7----5-5-----7-7-7-7-7-7--x8-|
A|-7-7-7-7-7-7----5-5-----7-7-7-7-7-7--x8-|
E|-5-5-5-5-5-5----3-3-----5-5-5-5-5-5--x8-|

Speak of truth with a mighty voice . . .

e|---------------------------------------------------------x2-|
B|---------------------------------------------------------x2-|
G|-5-5-5-5-5-5-5----7-7-7-7-7-7-7--------------------------x2-|
D|-5-5-5-5-5-5-5----7-7-7-7-7-7-7----7-7-7-7-7-7-----5-5---x2-|
A|-3-3-3-3-3-3-3----5-5-5-5-5-5-5----7-7-7-7-7-7-----5-5---x2-|
E|-----------------------------------5-5-5-5-5-5-----3-3---x2-|

e|-----------------------------------|
B|-----------------------------------|
G|-----------------------------------|
D|-7-7-7-7-7-7----5-5----7-7-7-7-7-7-|
A|-7-7-7-7-7-7----5-5----7-7-7-7-7-7-|
E|-5-5-5-5-5-5----3-3----5-5-5-5-5-5-|

Chorus:  The voice of God is government . . .

e|--------------------------------------------------------------------x2-|
B|--------------------------------------------------------------------x2-|
G|-5-5-5------------------------------5-5-5---------------------------x2-|
D|-5-5-5----5-5-5----7-7-7-7-7-7-7----5-5-5----5-5-5----7-7-7-7-7-7---x2-|
A|-3-3-3----5-5-5----7-7-7-7-7-7-7----3-3-3----5-5-5----7-7-7-7-7-7---x2-|
E|----------3-3-3----5-5-5-5-5-5-5----------------------5-5-5-5-5-5---x2-|

Just listen to the song for the changes, but that's the jist of it.  Sorry, can't solo, 
once I learn it, it's going up.  Any questions, feel free to email me
Suggest correction
Give kudos to tab author, rate the tab!
1 2 3 4 5
comments
print report bad tab
guest
You may want to rate the tab now too:
select rating
Please do not post tabs as comments. Select "correction" instead!