Oops, an error
Loading. Please wait.

Walk Away Tab

version 1
version 1

Whole song

Interactive

1,461 views 3 this week
no commentswrite comment
1 2 3 4 5
please rate
add to favorites
launch autoscroll
font size
0
reset
how to read this tab
guitar tuner
Autoscroll
slow
fast
+/-
esc
set tempo
stop
Help us to improve Ultimate-Guitar.com Take our survey!
×
Author
-----------------------------------------------------------------------------
                             Walk Away - Bad Religion
-----------------------------------------------------------------------------
Tabbed by: KevinNorth
E-mail:

Tuning: Standard

VERSES
E||---------------------------------------------------------------------------|
B||---------------------------------------------------------------------------|
G||--9999-7------9999-7----------7777---9999-7-----14-----9-----7-------------|
D||--9999-7-X4---9999-7-10101010-7777---9999-7-X3--14-X5--9-X5--7-X5----------|
A||--7777-5------7777-5-10101010-5555---7777-5-----12-----7-----5-------------|
E||---------------------8-8-8-8-----------------------------------------------|
     |--X4-|       Shut off the tv      |-X3--|      And Ill stain the clean
e|---------------------------------------------------------------------------||
B|---------------------------------------------------------------------------||
G|--9999-7------9999-7----------7777---12-12-12-12--------14----9----7-------|| Start 
D|--9999-7-X4---9999-7-10101010-7777---12-12-12-12-12-X4--14-X5-9-X5-7-x5----|| to here
A|--7777-5------7777-5-10101010-5555---10-10-10-10-12-----12----7----5-------|| Play X2
E|---------------------8-8-8-8---------------------10------------------------||
                Old Mr Fletcher        |---X4--------|    After 40 yrs of toil

CHORUS (listen/watch for how many times to play each chord)
e|---------------------------------------------------------------------------|
B|---------------------------------------------------------------------------|
G|-9--7--9------------5--7--12-----------------------------------------------|
D|-9--7--9--10--7--2--5--7--12--10--9----------------------------------------|
A|-7--5--7--10--7--2--3--5--10--10--9----------------------------------------|
E|----------8---9--0------------8---7----------------------------------------|
   Walk away walk away

VERSE (same as 1st verse)
e||---------------------------------------------------------------------------|
B||---------------------------------------------------------------------------|
G||--9999-7------9999-7----------7777---9999-7-----14-----9-----7-------------|
D||--9999-7-X4---9999-7-10101010-7777---9999-7-X3--14-X5--9-X5--7-X5----------|
A||--7777-5------7777-5-10101010-5555---7777-5-----12-----7-----5-------------|
E||---------------------8-8-8-8-----------------------------------------------|

e|---------------------------------------------------------------------------||
B|---------------------------------------------------------------------------||
G|--9999-7------9999-7----------7777---12-12-12-12--------14----9----7-------||  
D|--9999-7-X4---9999-7-10101010-7777---12-12-12-12-12-X4--14-X5-9-X5-7-x5----|| Play X1
A|--7777-5------7777-5-10101010-5555---10-10-10-10-12-----12----7----5-------|| 
E|---------------------8-8-8-8---------------------10------------------------||

CHORUS (Same as last chorus)
e|---------------------------------------------------------------------------|
B|---------------------------------------------------------------------------|
G|-9--7--9------------5--7--12-----------------------------------------------|
D|-9--7--9--10--7--2--5--7--12--10--9----------------------------------------|
A|-7--5--7--10--7--2--3--5--10--10--9----------------------------------------|
E|----------8---9--0------------8---7----------------------------------------|
   Walk away walk away


Play over the solo (just the one thing X4 then the chorus with a couple extra chords)
e|---------------------------------------------------------------------------------|
B|---------------------------------------------------------------------------------|
G|-9999-7------9--7--9------------5--7--12----------9--7-9----------9999-7-----9---|
D|-9999-7-X4---9--7--9--10--7--2--5--7--12--10--9---9--7-9-10-9-----9999-7-X3--9---|
A|-7777-5------7--5--7--10--7--2--3--5--10--10--9---7--5-7-10-9-----7777-5-----7---|
E|----------------------8---9--0------------8---7-----------8-7--------------------|
              |-------Chorus chords--------------|                 |--X3--|
Suggest correction
Give kudos to tab author, rate the tab!
1 2 3 4 5
comments
print report bad tab
guest
You may want to rate the tab now too:
select rating
Please do not post tabs as comments. Select "correction" instead!