Oops, an error
Loading. Please wait.

Were Only Gonna Die Bass Tab

2,717 views 1 this week
no commentswrite comment
1 2 3 4 5
x 4
add to favorites
launch autoscroll
font size
0
reset
guitar tuner
Autoscroll
slow
fast
+/-
esc
set tempo
stop
Help us to improve Ultimate-Guitar.com Take our survey!
×
Author
-------------------------------------------------------------------------------
			   We're Only Gonna Die - Bad Religion
-------------------------------------------------------------------------------
Tabbed By: Valerie L.
e-mail: iloled@yahoo.com

Intro
G|-----------------------|
D|-----------------------|
A|----------------33-----|
E|-3-55-3-55-3-55----3---| x4

Chorus
G|-----------------------|
D|-----------------------|
A|-----------5555--------|
E|-5555-3333------5555---| x2

Verse
G|-----------------------|
D|-----------------------|
A|----------4545---------|
E|-5555-3333------5555---| x2

Intro x4

BreaK:
G|------------------|
D|------------------|
A|---------5~-------|
E|-5~--3~-----5~----| 

Chorus 
G|-------------------------------------|
D|-------------------------------------|
A|-------------------55555555----------|
E|-55555555-33333333----------55555555-| x5

Intro x3 
Chorus x2
Intro x6
Suggest correction
comments
print report bad tab
guest
You may want to rate the tab now too:
select rating
Wanna post a correction for this tab? Suggest correction