Oops, an error
Loading. Please wait.

What Can You Do Bass Tab

version 1
version 1

Whole song

414 views 1 this week
no commentswrite comment
1 2 3 4 5
2 more votes to show rating
add to favorites
launch autoscroll
font size
0
reset
guitar tuner
Autoscroll
slow
fast
+/-
esc
set tempo
stop
Help us to improve Ultimate-Guitar.com Take our survey!
×
Artist: BAD RELIGION
Song: What Can You Do?
Album: Suffer
Tuning: Standard (EADG)


VERSE:

G|-----------------|-----------------|-----------------|-----------------|
D|-----------------|-----------------|-----------------|-----------------|
A|-5-5-5-5-5-5-5-0-|---0-0-0-0-0-0-7-|---7-7-7-7-7-7-5-|-7-7-7-5-7-7-7-7-|
E|-----------------|-----------------|-----------------|-----------------|

G|-----------------|-----------------|-----------------|-----------------|
D|-----------------|-----------------|-----------------|-----------------|
A|-5-5-5-5-5-5-5-0-|---0-0-0-0-0-0---|-----------------|-----------------|
E|-----------------|---------------0-|---0-0-0-0-0-0-0-|-0-0-0-0-0-0-0-0-|

G|-----------------|-----------------|-----------------|-----------------|
D|-----------------|-----------------|-----------------|-----------------|
A|-----------------|-5-5-5-5-5-5-5-5-|-----4---5---7---|-----4---5---7---|
E|-3-3-3-3-3-3-3-3-|-----------------|-5-5---5---5---5-|-5-5---5---5---5-|

G|-----------------|-----------------|-----------------|-----------------|
D|-----------------|-----------------|-----------------|-----------------|
A|-5-5-5-5-5-5-5-5-|-0-0-0-0-0-0-0-0-|-7---5-7---5-7---|-5-7---5-7---7---|
E|-----------------|-----------------|-----------------|-----------------|


CHORUS:

G|-----------------|-----------------|-----------------|-----------------|
D|-----------------|-----------------|-----------------|-----------5-----|
A|---------5-5-5-5-|-----------------|---------5-5-5-5-|-7-7-7-5-7---7-5-|
E|-3-3-3-3---------|-5-5-5-5-1-3-5-5-|-3-3-3-3---------|-----------------|

G|-----------------|-----------------|-----------------|-----------------|
D|-----------------|-----------------|-----------------|-----------------|
A|---------5-5-5-5-|-----------------|-----------------|-----------------|
E|-3-3-3-3---------|-3-3-3-3-5-5-5-5-|-1-1-1-1-1-1-1-1-|-3-3-3-3-3-3-3-3-|

G|-----------------|-----------------|
D|-----------------|-----------------|
A|-----------------|-----------------|
E|-5---------------|-(5)-------------|


Repeat: VERSE, CHORUS


INTERLUDE:

G|-----------------|-----------------|    |-----------------|
D|-----------------|-----------------|    |-----------------|
A|-----------------|-----------------|    |-----------------|
E|---3---3---3---3-|-5---------------| x3 |---3---3---3---3-|


PLAY UNDER SOLO:

G|-----------------|-----------------|
D|-----------------|-----------------|
A|-----------------|-----2-3-5-5-5---|
E|-5-5-5-5-5-5-5-5-|-3-5-----------3-| x8

G|-----------------|-----------------|-----------------|----------------|
D|-----------------|-----------------|-----------------|----------------|
A|-----------------|-----------------|-----------------|----------------|
E|-1-1-1-1-1-1-1-1-|-3-3-3-3-3-3-3-3-|-5---------------|-(5)------------|


Repeat: VERSE, CHORUS, last four bars of the CHORUS


OUTRO:

G|-----------------|-----------------|-----------------|-----------------|
D|-----------------|-----------------|-----------------|-----------------|
A|-5-5-5-5-5-5-5-0-|---0-0-0-0-0-0-7-|---7-7---7-7-5-7-|---7-7-5-7-7-7-7-|
E|-----------------|-----------------|-----------------|-----------------|

G|-----------------|-----------------|-----------------|-----------------|
D|-----------------|-----------------|-----------------|-----------------|
A|-5-5-5-5-5-5-5-0-|---0-0-0-0-0-0-0-|-7---5-7---5-7---|-----------------|
E|-----------------|-----------------|-----------------|---0-0-0---------|


THE END
Suggest correction
Give kudos to tab author, rate the tab!
1 2 3 4 5
comments
print report bad tab
guest
You may want to rate the tab now too:
select rating
Wanna post a correction for this tab? Suggest correction