Oops, an error
Loading. Please wait.

What Can You Do Tab

1,317 views 1 this week
no commentswrite comment
1 2 3 4 5
please rate
add to favorites
launch autoscroll
font size
0
reset
how to read this tab
guitar tuner
Autoscroll
slow
fast
+/-
esc
set tempo
stop
Help us to improve Ultimate-Guitar.com Take our survey!
×
Artist: BAD RELIGION
Song: What Can You Do?
Album: Suffer
Tuning: Standard (EADGBE)


VERSE:

   D5		     A5		       E5
E|-----------------|-----------------|-----------------|-----------------|
B|-----------------|-----------------|-----------------|-----------------|
G|-7-7-7-7-7-7-7-7-|-----------------|-----------------|-----------------|
D|-7-7-7-7-7-7-7-7-|-7-7-7-7-7-7-7-7-|-2-2-2-2-2-2-2-2-|-2-2-2-2-2-2-2-2-|
A|-5-5-5-5-5-5-5-5-|-7-7-7-7-7-7-7-7-|-2-2-2-2-2-2-2-2-|-2-2-2-2-2-2-2-2-|
E|-----------------|-5-5-5-5-5-5-5-5-|-0-0-0-0-0-0-0-0-|-0-0-0-0-0-0-0-0-| x2

   G5		     D5		       A5
E|-----------------|-----------------|-----------------|-----------------|
B|-----------------|-----------------|-----------------|-----------------|
G|-----------------|-7-7-7-7-7-7-7-7-|-----------------|-----------------|
D|-5-5-5-5-5-5-5-5-|-7-7-7-7-7-7-7-7-|-7-7-7-7-7-7-7-7-|-7-7-7-7-7-7-7-7-|
A|-5-5-5-5-5-5-5-5-|-5-5-5-5-5-5-5-5-|-7-7-7-7-7-7-7-7-|-7-7-7-7-7-7-7-7-|
E|-3-3-3-3-3-3-3-3-|-----------------|-5-5-5-5-5-5-5-5-|-5-5-5-5-5-5-5-5-|

   D5		     A5		       E5
E|-----------------|-----------------|-----------------|-----------------|
B|-----------------|-----------------|-----------------|-----------------|
G|-7-7-7-7-7-7-7-7-|-----------------|-----------------|-----------------|
D|-7-7-7-7-7-7-7-7-|-7-7-7-7-7-7-7-7-|-2-----2-----2---|---2-----2---2---|
A|-5-5-5-5-5-5-5-5-|-7-7-7-7-7-7-7-7-|-2-----2-----2---|---2-----2---2---|
E|-----------------|-5-5-5-5-5-5-5-5-|-0-----0-----0---|---0-----0---0---|


CHORUS:

   G5      D5        A5                G5      D5        E5
E|-----------------|-----------------|-----------------|-----------------|
B|-----------------|-----------------|-----------------|-----------------|
G|---------7-7-7-7-|-----------------|---------7-7-7-7-|-9-9-x-----------|
D|-5-5-5-5-7-7-7-7-|-7-7-7-7-7-7-7-7-|-5-5-5-5-7-7-7-7-|-9-9-x-2-2---2---|
A|-5-5-5-5-5-5-5-5-|-7-7-7-7-7-7-7-7-|-5-5-5-5-5-5-5-5-|-7-7-x-2-2---2---|
E|-3-3-3-3---------|-5-5-5-5-5-5-5-5-|-3-3-3-3---------|-------0-0---0---|

   G5      D5        G5      A5        F5                G5
E|-----------------|-----------------|-----------------|-----------------|
B|-----------------|-----------------|-----------------|-----------------|
G|---------7-7-7-7-|-----------------|-----------------|-----------------|
D|-5-5-5-5-7-7-7-7-|-5-5-5-5-7-7-7-7-|-3-3-3-3-3-3-3-3-|-5-5-5-5-5-5-5-5-|
A|-5-5-5-5-5-5-5-5-|-5-5-5-5-7-7-7-7-|-3-3-3-3-3-3-3-3-|-5-5-5-5-5-5-5-5-|
E|-3-3-3-3---------|-3-3-3-3-5-5-5-5-|-1-1-1-1-1-1-1-1-|-3-3-3-3-3-3-3-3-|

   A5
E|-----------------|-----------------|
B|-----------------|-----------------|
G|-----------------|-----------------|
D|-7---------------|-(7)-------------|
A|-7---------------|-(7)-------------|
E|-5---------------|-(5)-------------|


Repeat: VERSE, CHORUS


INTERLUDE:

     G5              A5                       G5
E|-----------------|-----------------|    |-----------------|
B|-----------------|-----------------|    |-----------------|
G|-----------------|-----------------|    |-----------------|
D|---5---5---5---5-|-7---------------|    |---5---5---5---5-|
A|---5---5---5---5-|-7---------------|    |---5---5---5---5-|
E|---3---3---3---3-|-5---------------| x3 |---3---3---3---3-|


SOLO:

E|-----------------|-----------------|-----------------|-----------------|
B|-----------------|-----------------|-----------------|---------8-----8-|
G|-----7575--------|-----7575--------|-----7575--------|---7b9-----7b9---|
D|---7-----7-------|---7------7------|---7-----7-----5-|-7---------------|
A|-----------------|-----------------|-----------------|-----------------|
E|-----------------|-----------------|-----------------|-----------------|


E|-----------------|-----------------|-----------------|-----------------|
B|-----------------|-----------------|-----------------|-----------------|
G|-----8-----------|-75--7-5-75--5---|-5-------5-------|-----------------|
D|-7b9---7b9-9-9-7-|---7-------7---7-|--7--5-7--7--5---|-----5---7-------|
A|-----------------|-----------------|---7-------7---7-|-7-----7---------|
E|-----------------|-----------------|-----------------|-----------------|


E|-------108108------------|-------108108------------|
B|----10-------10----------|----10-------10----------|
G|-------------------------|-------------------------|
D|-------------------------|-------------------------|
A|-------------------------|-------------------------|
E|-------------------------|-------------------------|


E|-------108108------------|-------------------------|
B|----10-------10----------|-------13-15b17----------|
G|-------------------------|-12-14-------------------|
D|-------------------------|-------------------------|
A|-------------------------|-------------------------|
E|-------------------------|-------------------------|


E|----15-------------------|-------------------------|
B|-15----------15-17\------|-------------13-15-13----|
G|-------------------------|----------------------14-|
D|-------------------------|-------------------------|
A|-------------------------|-------------------------|
E|-------------------------|-------------------------|


E|-------------------------|-------------------------|
B|----------------13-xx-xx-|-17-xx-xx-13-15-13-------|
G|----------------14-xx-xx-|-14-xx-xx-14-16-14-14\---|
D|-------------------------|-------------------------|
A|-------------------------|-------------------------|
E|-------------------------|-------------------------|


E|-----------------|-----------------|-----------------|
B|-6-6---6-6---6---|-8-8---8-8---8---|-----------------|
G|-5-5---5-5---5---|-7-7---7-7---7---|-7b9-------------|
D|-----7-----7---7-|-----9-----9---9-|-----------------|
A|-----------------|-----------------|-----------------|
E|-----------------|-----------------|-----------------|


Rhythm Guitar plays:

   A5                G5      D5
E|-----------------|-----------------|
B|-----------------|-----------------|
G|-----------------|---------7-7-7-7-|
D|-7-7-7-7-7-7-7-7-|-5-5-5-5-7-7-7-7-|
A|-7-7-7-7-7-7-7-7-|-5-5-5-5-5-5-5-5-|
E|-5-5-5-5-5-5-5-5-|-3-3-3-3---------| x8

   F5                G5                A5
E|-----------------|-----------------|-----------------|-----------------|
B|-----------------|-----------------|-----------------|-----------------|
G|-----------------|-----------------|-----------------|-----------------|
D|-3-3-3-3-3-3-3-3-|-5-5-5-5-5-5-5-5-|-7---------------|-(7)-------------|
A|-3-3-3-3-3-3-3-3-|-5-5-5-5-5-5-5-5-|-7---------------|-(7)-------------|
E|-1-1-1-1-1-1-1-1-|-3-3-3-3-3-3-3-3-|-5---------------|-(5)-------------|


Repeat: VERSE, CHORUS, last four bars of the CHORUS


OUTRO:

   D5		     A5		       E5
E|-----------------|-----------------|-----------------|-----------------|
B|-----------------|-----------------|-----------------|-----------------|
G|-7-7-7-7-7-7-7-7-|-----------------|-----------------|-----------------|
D|-7-7-7-7-7-7-7-7-|-7-7-7-7-7-7-7-7-|-2-2-2-2-2-2-2-2-|-2-2-2-2-2-2-2-2-|
A|-5-5-5-5-5-5-5-5-|-7-7-7-7-7-7-7-7-|-2-2-2-2-2-2-2-2-|-2-2-2-2-2-2-2-2-|
E|-----------------|-5-5-5-5-5-5-5-5-|-0-0-0-0-0-0-0-0-|-0-0-0-0-0-0-0-0-|

   D5		     A5		       E5
E|-----------------|-----------------|-----------------|-----------------|
B|-----------------|-----------------|-----------------|-----------------|
G|-7-7-7-7-7-7-7-7-|-----------------|-----------------|-----------------|
D|-7-7-7-7-7-7-7-7-|-7-7-7-7-7-7-7-7-|-2-----2-----2---|---2-2-2---------|
A|-5-5-5-5-5-5-5-5-|-7-7-7-7-7-7-7-7-|-2-----2-----2---|---2-2-2---------|
E|-----------------|-5-5-5-5-5-5-5-5-|-0-----0-----0---|---0-0-0---------|


THE END
comments
We did not receive enough feedback on this tab! Please rate:
print report bad tab
1 2 3 4 5
I want to post or [tab]
guest
You may want to rate the tab now too:
select rating
Please do not post tabs as comments. Select "correction" instead!