Oops, an error
Loading. Please wait.

White Christmas tab

679 views 3 this week
no commentswrite comment
1 2 3 4 5
2 more votes to show rating
add to favorites
×
Save as Personal and add changes to this tab that will be seen only by you. Learn more ›
×
You can save this tab as Personal to edit and correct it or add notes. All changes will be seen only by you. Learn more »
launch autoscroll
font size
0
reset
how to read this tab
guitar tuner
edit
Autoscroll
slow
fast
+/-
esc
set tempo
stop
White Christmas - Bad Religion (TAB)

Song: White Christmas
Artist: Bad Religion
Album: Christmas Songs
Release Date: October 29th, 2013
Tuning: Standard
Difficulty: Intermediate


[Intro]

E|------------------------------------------------------------------------------------|
B|------------------------------------------------------------------------------------|
G|-8-8-9-9-9-9-9-9-9-9-9-9-9-9-9-9-8-8-9-9-9-9-9-9-9-9-9-9-9-9-9-9--------------------|
D|-8-8-9-9-9-9-9-9-9-9-9-9-9-9-9-9-8-8-9-9-9-9-9-9-9-9-9-9-9-9-9-9--------------------|
A|-6-6-7-7-7-7-7-7-7-7-7-7-7-7-7-7-6-6-7-7-7-7-7-7-7-7-7-7-7-7-7-7--------------------|
E|------------------------------------------------------------------------------------|


[Verse 1]

I'm       dreaming     of        a      White      Christmas         Just like the
E|------------------------------------------------------------------------------------|
B|------------------------------------------------------------------------------------|
G|-9-9-9-9-9-9-9-9-9-9-9-9-9-9-9-9----------------------------------------------------|
D|-9-9-9-9-9-9-9-9-9-9-9-9-9-9-9-9-7-7-7-7-7-7-7-7-8-9-9-9-9-9-9-9-9-7-7-7-7-7-7-7-7--|
A|-7-7-7-7-7-7-7-7-7-7-7-7-7-7-7-7-7-7-7-7-7-7-7-7-8-9-9-9-9-9-9-9-9-7-7-7-7-7-7-7-7--|
E|---------------------------------5-5-5-5-5-5-5-5-6-7-7-7-7-7-7-7-7-5-5-5-5-5-5-5-5--|

  Ones  I  used to know                         Where  the  tree   tops   glisten
E|------------------------------------------------------------------------------------|
B|------------------------------------------------------------------------------------|
G|-----------------9-9-9-9-9-9-9-9-9-9-9-9-9-9-9-9-9-9-9-9-9-9-9-9-9-9-9-9-9-9-9-9----|
D|-9-9-9-9-9-9-9-9-9-9-9-9-9-9-9-9-9-9-9-9-9-9-9-9-9-9-9-9-9-9-9-9-9-9-9-9-9-9-9-9----|
A|-9-9-9-9-9-9-9-9-7-7-7-7-7-7-7-7-7-7-7-7-7-7-7-7-7-7-7-7-7-7-7-7-7-7-7-7-7-7-7-7----|
E|-7-7-7-7-7-7-7-7--------------------------------------------------------------------|

   and     children   listen    to         hear                           sleigh bells
E|---------5-5-5-5-5-5-5-5-5-5-5-5-5-5-5-5--------------------------------------------|
B|---------5-5-5-5-5-5-5-5-5-5-5-5-5-5-5-5--------------------------------------------|
G|-9-9-9-9-5-5-5-5-5-5-5-5-5-5-5-5-5-5-5-5-9-9-9-9-9-9-9-9-9-9-9-9-9-9-9-9-15-15-15---|
D|-9-9-9-9-7-7-7-7-7-7-7-7-7-7-7-7-7-7-7-7-9-9-9-9-9-9-9-9-9-9-9-9-9-9-9-9-15-15-15---|
A|-7-7-7-7-7-7-7-7-7-7-7-7-7-7-7-7-7-7-7-7-7-7-7-7-7-7-7-7-7-7-7-7-7-7-7-7-12-12-12---|
E|---------5-5-5-5-5-5-5-5-5-5-5-5-5-5-5-5--------------------------------------------|

    in    the   snow
E|------------------------------------------------------------------------------------|
B|------------------------------------------------------------------------------------|
G|-15-15-15-15-15---------------------------------------------------------------------|
D|-15-15-15-15-15-9-9-9-9-9-9-9-9-9-9-9-9-9-9-9-9-------------------------------------|
A|-12-12-12-12-12-9-9-9-9-9-9-9-9-9-9-9-9-9-9-9-9-------------------------------------|
E|----------------7-7-7-7-7-7-7-7-7-7-7-7-7-7-7-7-------------------------------------|


[Verse 2]

I'm       dreaming     of        a      White      Christmas         With every
E|------------------------------------------------------------------------------------|
B|------------------------------------------------------------------------------------|
G|-9-9-9-9-9-9-9-9-9-9-9-9-9-9-9-9----------------------------------------------------|
D|-9-9-9-9-9-9-9-9-9-9-9-9-9-9-9-9-7-7-7-7-7-7-7-7-9-9-9-9-9-9-9-9-7-7-7-7-7-7-7-7----|
A|-7-7-7-7-7-7-7-7-7-7-7-7-7-7-7-7-7-7-7-7-7-7-7-7-9-9-9-9-9-9-9-9-7-7-7-7-7-7-7-7----|
E|---------------------------------5-5-5-5-5-5-5-5-7-7-7-7-7-7-7-7-5-5-5-5-5-5-5-5----|

  Christmas card I write                         May   your   days   be   merry   and
E|------------------------------------------------------------------------------------|
B|------------------------------------------------------------------------------------|
G|-----------------9-9-9-9-9-9-9-9-9-9-9-9-9-9-9-9-9-9-9-9-9-9-9-9-9-9-9-9-9-9-9-9----|
D|-9-9-9-9-9-9-9-9-9-9-9-9-9-9-9-9-9-9-9-9-9-9-9-9-9-9-9-9-9-9-9-9-9-9-9-9-9-9-9-9----|
A|-9-9-9-9-9-9-9-9-7-7-7-7-7-7-7-7-7-7-7-7-7-7-7-7-7-7-7-7-7-7-7-7-7-7-7-7-7-7-7-7----|
E|-7-7-7-7-7-7-7-7--------------------------------------------------------------------|

  bright                 and  may   all       your Christmases   be    White
E|-5-5-5-5-5-5-5-5-5-5-5-5-5-5-5-5----------------------------------------------------|
B|-5-5-5-5-5-5-5-5-5-5-5-5-5-5-5-5----------------------------------------------------|
G|-5-5-5-5-5-5-5-5-5-5-5-5-5-5-5-5-9-9-9-9-9-9-9-9-11-11-11-----------9-9-9-9-9-9-9-9-|
D|-7-7-7-7-7-7-7-7-7-7-7-7-7-7-7-7-9-9-9-9-9-9-9-9-11-11-11-9-9-9-9-9-9-9-9-9-9-9-9-9-|
A|-7-7-7-7-7-7-7-7-7-7-7-7-7-7-7-7-7-7-7-7-7-7-7-7-9--9--9--9-9-9-9-9-7-7-7-7-7-7-7-7-|
E|-5-5-5-5-5-5-5-5-5-5-5-5-5-5-5-5--------------------------7-7-7-7-7-----------------|

E|------------------------------------------------------------------------------------|
B|------------------------------------------------------------------------------------|
G|-9-9-9-9-8--6-----------------------------------------------------------------------|
D|-9-9-9-9-8--6-----------------------------------------------------------------------|
A|-7-7-7-7-6--4-----------------------------------------------------------------------|
E|------------------------------------------------------------------------------------|


[Solo]

E|-4^--------4^--4--------------------------6^-6^-6^-6^-6^-4-6^-6^-6^-6^-4-6------7-7-|
B|-5^--------5^--5--4+--5+----7+--9+--------7^-7^-7^-7^-7^-5-7^-7^-7^-7^-5-7------7-7-|
G|----------------------------------------------------------------------------9^^-----|
D|------------------------------------------------------------------------------------|
A|------------------------------------------------------------------------------------|
E|------------------------------------------------------------------------------------|

                                   Oooh
E|-----7-7-----7-7-----7-7-----7-7----------------------------------------------------|
B|-----7-7-----7-7-----7-7-----7-7----------------------------------------------------|
G|-9^^-----9^^-----9^^-----9^^-----9^^------------------------------------------------|
D|------------------------------------------------------------------------------------|
A|------------------------------------------------------------------------------------|
E|------------------------------------------------------------------------------------|


[Verse 3]

I'm       dreaming     of        a      White      Christmas         With every
E|------------------------------------------------------------------------------------|
B|------------------------------------------------------------------------------------|
G|-9-9-9-9-9-9-9-9-9-9-9-9-9-9-9-9----------------------------------------------------|
D|-9-9-9-9-9-9-9-9-9-9-9-9-9-9-9-9-7-7-7-7-7-7-7-7-9-9-9-9-9-9-9-9-7-7-7-7-7-7-7-7----|
A|-7-7-7-7-7-7-7-7-7-7-7-7-7-7-7-7-7-7-7-7-7-7-7-7-9-9-9-9-9-9-9-9-7-7-7-7-7-7-7-7----|
E|---------------------------------5-5-5-5-5-5-5-5-7-7-7-7-7-7-7-7-5-5-5-5-5-5-5-5----|

  Christmas card I write                         May   your   days   be   merry   and
E|------------------------------------------------------------------------------------|
B|------------------------------------------------------------------------------------|
G|-----------------9-9-9-9-9-9-9-9-9-9-9-9-9-9-9-9-9-9-9-9-9-9-9-9-9-9-9-9-9-9-9-9----|
D|-9-9-9-9-9-9-9-9-9-9-9-9-9-9-9-9-9-9-9-9-9-9-9-9-9-9-9-9-9-9-9-9-9-9-9-9-9-9-9-9----|
A|-9-9-9-9-9-9-9-9-7-7-7-7-7-7-7-7-7-7-7-7-7-7-7-7-7-7-7-7-7-7-7-7-7-7-7-7-7-7-7-7----|
E|-7-7-7-7-7-7-7-7--------------------------------------------------------------------|

  bright                 and  may   all       your Christmases   be    Whi...
E|-5-5-5-5-5-5-5-5-5-5-5-5-5-5-5-5----------------------------------------------------|
B|-5-5-5-5-5-5-5-5-5-5-5-5-5-5-5-5----------------------------------------------------|
G|-5-5-5-5-5-5-5-5-5-5-5-5-5-5-5-5-9-9-9-9-9-9-9-9-11-11-11-----------9-9-9-9-9-9-9-9-|
D|-7-7-7-7-7-7-7-7-7-7-7-7-7-7-7-7-9-9-9-9-9-9-9-9-11-11-11-9-9-9-9-9-9-9-9-9-9-9-9-9-|
A|-7-7-7-7-7-7-7-7-7-7-7-7-7-7-7-7-7-7-7-7-7-7-7-7-9--9--9--9-9-9-9-9-7-7-7-7-7-7-7-7-|
E|-5-5-5-5-5-5-5-5-5-5-5-5-5-5-5-5--------------------------7-7-7-7-7-----------------|

   ... i ...       ... ite ...              ... Be     Whi...          ... i ...
E|------------------------------------------------------------------------------------|
B|------------------------------------------------------------------------------------|
G|-------------------------------------------------9-9-9-9-9-9-9-9--------------------|
D|-9-9-9-9-9-9-9-9-7-7-7-7-7-7-7-7-7-7-7-7-7-7-7-7-9-9-9-9-9-9-9-9-9-9-9-9-9-9-9-9----|
A|-9-9-9-9-9-9-9-9-7-7-7-7-7-7-7-7-7-7-7-7-7-7-7-7-7-7-7-7-7-7-7-7-9-9-9-9-9-9-9-9----|
E|-7-7-7-7-7-7-7-7-5-5-5-5-5-5-5-5-5-5-5-5-5-5-5-5-----------------7-7-7-7-7-7-7-7----|

  ... ite ...          ... All     Whi...           ... i ...      ... ite ...
E|------------------------------------------------------------------------------------|
B|------------------------------------------------------------------------------------|
G|---------------------------------9-9-9-9-9-9-9-9------------------------------------|
D|-7-7-7-7-7-7-7-7-7-7-7-7-7-7-7-7-9-9-9-9-9-9-9-9-9-9-9-9-9-9-9-9-7-7-7-7-7-7-7-7-4--|
A|-7-7-7-7-7-7-7-7-7-7-7-7-7-7-7-7-7-7-7-7-7-7-7-7-9-9-9-9-9-9-9-9-7-7-7-7-7-7-7-7-4--|
E|-5-5-5-5-5-5-5-5-5-5-5-5-5-5-5-5-----------------7-7-7-7-7-7-7-7-5-5-5-5-5-5-5-5-2--|

            Oh    White...
E|----------------0------------------------------------------------------------------|
B|----------------0------------------------------------------------------------------|
G|----------------1------------------------------------------------------------------|
D|-4-4-4-4-4-4-4--2------------------------------------------------------------------|
A|-4-4-4-4-4-4-4--2------------------------------------------------------------------|
E|-2-2-2-2-2-2-2--0------------------------------------------------------------------|
                 ^Let E chord ring


************************************

^ - Bend
+ - Vibrato
^^ - Bend full step

************************************

            
            
Suggest correction
Creating personal tab
Creating personal tab
You can edit any tab online and save it as your Personal.

You can edit, replace or remove any tab part or add personal notes – all changes will be seen only by you.

Personal tabs can be accessed anytime from any device, even offline.
Learn more »
Give kudos to tab author, rate the tab!
1 2 3 4 5
comments
print report bad tab
guest
You may want to rate the tab now too:
select rating
Wanna post a correction for this tab? Suggest correction