Oops, an error
Loading. Please wait.

White Trash Bass Tab

393 views 1 this week
no commentswrite comment
1 2 3 4 5
please rate
add to favorites
launch autoscroll
font size
0
reset
guitar tuner
Autoscroll
slow
fast
+/-
esc
set tempo
stop
Help us to improve Ultimate-Guitar.com Take our survey!
×
Author
-------------------------------------------------------------------------------
		  White Trash (2nd Generation) - Bad Religion
-------------------------------------------------------------------------------
Tabbed By: Valerie L.
e-mail: iloled@yahoo.com

Verse
G|---------------------------|
D|----20-----------20--------|
A|-22-----------22-----------|
E|-------33-55-------3h5-3h5-| x4

Pre-Chorus
G|-------------------------------------|
D|-------------------------------------|
A|-77777777-55555555----------55555555-|
E|-------------------77777777----------|

Chorus
G|-------------------------------------------------------|
D|-------------------------------------------------------|
A|------------------555555-5-----------------------------|
E|77777777-55555555----------7-7777777-3333-5555-77777777|

Verse x4
Pre-Chorus x1
Chorus 
Verse x4

Guitar Solo
G|-------------------------------------|
D|-------------------------------------|
A|---------5555555p4-------------------|
E|-7777777-----------77777777-3333-5555| x2

Chorus x2

Suggest correction
Give kudos to tab author, rate the tab!
1 2 3 4 5
comments
print report bad tab
guest
You may want to rate the tab now too:
select rating
Wanna post a correction for this tab? Suggest correction