Oops, an error
Loading. Please wait.

Yesterday Bass Tab

version 2
version 2

Whole song

Interactive

371 views 1 this week
1 commentread comment
1 2 3 4 5
3 more votes to show rating
add to favorites
launch autoscroll
font size
0
reset
guitar tuner
Autoscroll
slow
fast
+/-
esc
set tempo
stop
Help us to improve Ultimate-Guitar.com Take our survey!
×
Author
Difficulty
novice
-------------------------------------------------------------------------------
			    YESTERDAY – Bad Religion
-------------------------------------------------------------------------------

Tabbed By : sherlock28
e-mail: phot0phen0m@aim.com

Tuning: standard

Intro/Verse:
G|------------------------------------------------------------------|
D|------------------------------------------------------------------|
A|---------666-5----------------------------------------------------|
E|-8-6-8--------666666666-------------------------------------------|

Chorus:
G|-----------------------------|------------------------------------|
D|-----------------------------|------------------------------------|
A|------6-----------6-5-3------|------6-----------------------------|
E|-4444--6---4-4-44-------6----|-4444--6--44444444-33333333-6-8-----|

Bridge: 1:41 (3x, then back to verse)

G|------------------------------------------------------------------|
D|------------------------------------------------------------------|
A|---------666-5----------------------------------------------------|
E|-8-6-8------------------------------------------------------------|


This is my first tab, it should be correct. Pretty simple song. Any problems e-mail me. Peace.
Suggest correction
Give kudos to tab author, rate the tab!
1 2 3 4 5
comments
print report bad tab
1 comment total.
0 reply
sherlock28 31 May 19, 2007 03:18 PM

Ah I caught a couple mistakes of my own.

The last note of the chorus, [8], is redundant. the first note of the new verse is what's played.

And the bridge should look like this, I missed the last note.

G|-------------------------------------------|
D|-------------------------------------------|
A|---------666-5-----------------------------|
E|-8-6-8---------6---------------------------|


Sorry about that guys.

guest
You may want to rate the tab now too:
select rating
Wanna post a correction for this tab? Suggest correction