Oops, an error
Loading. Please wait.

You Bass Tab

version 2
version 2

Whole song

Interactive

7,364 views 9 this week
2 commentsread comments
1 2 3 4 5
x 5
add to favorites
launch autoscroll
font size
0
reset
guitar tuner
Autoscroll
slow
fast
+/-
esc
set tempo
stop
Help us to improve Ultimate-Guitar.com Take our survey!
×
Author
Difficulty
novice
Artist   - Bad Religion
Song     - You
Album    - No Control
Tabber   - Xero-P
Tunning  - Standard (E,A,D,G,B,E)

Hola, que tal, ésta es mi versión de You de Bad Religion,
los sonidos salen a la perfección. Por favor votad.

Hi, whats up? This is my version of You by Bad Religion,
the sounds like 100% right.
Please rate it!

> slide up

--Intro-- x4
------------------------------------|
----------0-2-0---------------------|
----0-2-3--------3-2----------------|
------------------------------------|

--Verse--
lyric --> there's a place where everyone can be happy ...
I-------------------------------------------------------------|
I-------------------------------------------------------------|
I--0000000000000---------------33333333333333-----------(3-5--|  Cause theres no time for fussing...
------------------------------|
------------------------------|
--88887777-8888 77-88-1010-88-|
------------------------------|

--chorus--
lyric-> and you...
---------------------------------------------------|
--------------------------------------------22222--|
-00000-------------00000--00000-------33333--------|
-------11111-33333--------------11111--------------|

lyric-> but I...
---------------------------------------------------|
---------------------------------------------------|
-00000--------------------00000--------------------|
-------11111-33333-33333--------11111-00000-00000--|

lyric-> and i wont forget it

--Intro (AGAIN)-- x4
------------------------------------|
----------0-2-0---------------------|
----0-2-3--------3-2----------------|
------------------------------------|

--Verse--
lyric --> there's a place where everyone can be RIGHT ...
I------------------------------------------------------------|
I---------------------------------------------(5-3-5-3-------|  Cause theres no time for fussing...
------------------------------|
------------------------------|
--88887777-8888 77-88-1010-88-|
------------------------------|

--chorus--
lyric-> and you...
---------------------------------------------------|
--------------------------------------------22222--|
-00000-------------00000--00000-------33333--------|
-------11111-33333--------------11111--------------|

lyric-> but I...
---------------------------------------------------|
---------------------------------------------------|
-00000--------------------00000--------------------|
-------11111-33333-33333--------11111-00000-00000--|

--outro--
¡¡and i wont forget it!!
I------------------------I    ---------------------------|
I------------------------I    ---------------------------|
I-00000-------------3-32-I    --00000--------------------|
I-------11111-33333------I>>>>>>>>>>>>>>>>>>>>5--|

This is my firt bass tab, the sounds are perfect.
The song is so fast but easy.
Good Luck!

Xero-P 29-07-2006
Suggest correction
comments
print report bad tab
2 comments total.
0 reply
Xero-P 302 Aug 03, 2006 09:09 PM

The song is perfect but ultimate guitar upload the tab wrong! ill upload it again

0 reply
bassplayer18A7X 111 Oct 21, 2008 07:11 PM

alright man, i was wondering why it said tuning was eadgbe, good tab man

guest
You may want to rate the tab now too:
select rating
Wanna post a correction for this tab? Suggest correction