Oops, an error
Loading. Please wait.

You Bass Tab

version 3
version 3

Whole song

Interactive

3,100 views 6 this week
no commentswrite comment
1 2 3 4 5
accurate
x 4
add to favorites
launch autoscroll
font size
0
reset
guitar tuner
Tab Pro tools
  • play this tab
  • loop segment
  • change instrument
  • show fretboard
  • metronome
×
Best way to learn
"You"
Autoscroll
slow
fast
+/-
esc
set tempo
stop
Contributor
Difficulty
intermediate
intro:
G:-----------------|
D:-----------------|
A:------5-7-5------|
E:5-7-8------8-(7)-| 4x

verse:
G:-------------------------------------|
D:-------------------------------------|
A:---------3333--------------333-55-77-|
E:5555-1111----3333-5555-1111----------| 2x

bridge:
G:------------------------|
D:------------------------|
A:------------------------|
E:8888-7777-8888-7-8-10-8-|

chorus:
G:----------------------------------------|
D:----------------------------------------|
A:------------------------------3333-7777-|
E:5555-1111-3333-5555-5555-1111-----------|

G:----------------------------------------|
D:----------------------------------------|
A:----------------------------------------|
E:5555-1111-3333-3333-5555-1111-0000-0000-|

play now everything again starting with the intro.
and after that comes the outro..

outro:
G:-----------------------------------------|
D:-----------------------------------------|
A:---------------3333----------------33-22-|
E:5555-1111-3333------5555-1111-3333-------|  2x than:

A:--------------------|
E:5555-1111-3333-5100-|


|-----------------------|--------------------|
|-12-12-10-12-----------|--------------------|
|---------------12---11-|---10------8--------|
|-----------------------|--------10----10-10-|
comments
print report bad tab
I want to post or [tab]
guest
You may want to rate the tab now too:
select rating
Please do not post tabs as comments. Select "correction" instead!