Oops, an error
Loading. Please wait.

Daft Pretty Boys Tab

679 views 30 this week
no commentswrite comment
1 2 3 4 5
x 4
add to favorites
launch autoscroll
font size
0
reset
how to read this tab
guitar tuner
Autoscroll
slow
fast
+/-
esc
set tempo
stop
Help us to improve Ultimate-Guitar.com Take our survey!
×
Author
Difficulty
novice
About this tab version
I listend to the song and tried to tab it. This is what i could make of it. I hope it's close. Was this info helpful? Yes No
[Intro]

e|---------------------------------------------------------------------------|
B|-------9-------9-------------9-------9-------------------------------------|
G|----10------10------10----10------10------10-------------------------------|
D|-11------11------11----10------10------10----------------------------------|
A|---------------------------------------------------------------------------|
E|---------------------------------------------------------------------------|

e|---------------------------------------------------------------------------|
B|------9------9------------9------9-----------------------------------------|
G|---10-----10-----10----10-----10-----10------------------------------------|
D|--------------------10-----------------------------------------------------|
A|-8------8------8------------8-----8----------------------------------------|
E|---------------------------------------------------------------------------|

e|---------------------------------------------------------------------------|
B|-------9-------9-------------9-------9-------------------------------------|
G|----10------10------10----10------10------10-------------------------------|
D|-11------11------11----10------10------10----------------------------------|
A|---------------------------------------------------------------------------|
E|---------------------------------------------------------------------------|

e|---------------------------------------------------------------------------|
B|------9------9------------9------9-----------------------------------------|
G|---10-----10-----10----10-----10-----10------------------------------------|
D|--------------------10-----------------------------------------------------|
A|-8------8------8------------8------8---------------------------------------|
E|---------------------------------------------------------------------------|
Suggest correction
comments
print report bad tab
guest
You may want to rate the tab now too:
select rating
Wanna post a correction for this tab? Suggest correction