Oops, an error
Loading. Please wait.

Heartbreaker Tab

400 views 21 this week
no commentswrite comment
1 2 3 4 5
x 3
add to favorites
launch autoscroll
font size
0
reset
how to read this tab
guitar tuner
Autoscroll
slow
fast
+/-
esc
set tempo
stop
Help us to improve Ultimate-Guitar.com Take our survey!
×
Author
Difficulty
novice
About this tab version
I listened to the song and tried to tab it. This is what I made of it. I hope it's close. Was this info helpful? Yes No
[Intro]

e|-14-----------------------11-14--------------------------------------------|
B|-------12-11-------11--------------12-11-------11--------------------------|
G|----11-------11-11----11--------11-------11-11----11-----------------------|
D|---------------------------------------------------------------------------|
A|---------------------------------------------------------------------------|
E|---------------------------------------------------------------------------|


e|-14-----------------------11-14--------------------------------------------|
B|-------12-11-------11--------------12-11-------11--------------------------|
G|----11-------11-11----11--------11-------11-11----11-----------------------|
D|---------------------------------------------------------------------------|
A|---------------------------------------------------------------------------|
E|---------------------------------------------------------------------------|




************************************

| x   Dead note
| g   Grace note
| (n) Ghost note
| h   Hammer-on
| p   Pull-off
| r   Release
| >   Accented note
| t   Tapping
| b   Bend
| br  Bend release
| pb  Pre-bend
| pbr Pre-bend release
| /   Slide up
| \   Slide down
| ~   Vibrato
| s   Slap
| P   Pop
| PM  Palm mute
| TR  Trill
| N   Tremolo

************************************
Suggest correction
Give kudos to tab author, rate the tab!
1 2 3 4 5
comments
print report bad tab
guest
You may want to rate the tab now too:
select rating
Wanna post a correction for this tab? Suggest correction