Oops, an error
Loading. Please wait.

Off She Goes Tab

version 1
version 1

Whole song

  • It's the only complete tab. Why there's an option ... Show more
1,384 views 78 this week
4 commentsread comments
1 2 3 4 5
x 4
add to favorites
launch autoscroll
font size
0
reset
how to read this tab
guitar tuner
Autoscroll
slow
fast
+/-
esc
set tempo
stop
Author
Difficulty
Tuning
intermediate
D# G# C# F# A# D#
About this tab version
It's the only complete tab. Why there's an option to only do the intro is beyond me... Was this info helpful? Yes No
-------------------------------------------------------------------------------
                          Off She Goes - Bad Suns
-------------------------------------------------------------------------------
Tabbed by: Micah Hobson
E-mail: shadowbreakmusic@gmail.com

Tuning: Half-step Down

[Intro] Repeat x4
D#|---7-----7-----7---7-----7-----7---7-----7-----7---7-----7-----7-|
A#|-----8-----8---------8-----8---------8-----8---------8-----8-----|
F#|-7-----7-----7---8-----8-----8---9-----9-----9---8-----8-----8---|
C#|-----------------------------------------------------------------|
G#|-----------------------------------------------------------------|
D#|-----------------------------------------------------------------|

[Verse]
[Guitar 1] x2
D#|---7-----7-----7---7-----7-----7---7-----7-----7---7-----7-----7-|
A#|-----8-----8---------8-----8---------8-----8---------8-----8-----|
F#|-7-----7-----7---8-----8-----8---9-----9-----9---8-----8-----8---|
C#|-----------------------------------------------------------------|
G#|-----------------------------------------------------------------|
D#|-----------------------------------------------------------------|
[Guitar 2] x2
D#|-------10-------10---------11-------11---------12-------12---------11-------11-|
A#|----12-------12---------12-------12---------12-------12---------12-------12----|
F#|-12-------12---------12-------12---------12-------12---------12-------12-------|
C#|-------------------------------------------------------------------------------|
G#|-------------------------------------------------------------------------------|
D#|-------------------------------------------------------------------------------|


[Chorus]
[Guitar 1] x2
D#|-10s----10---8s---8--7---10s----10---8s---8--7-|
A#|--8s-----8---8s---8--8----8s-----8---8s---8--8-|
F#|--9s-----9---9s---9--9----9s-----9---9s---9--9-|
C#|-----------------------------------------------|
G#|-----------------------------------------------|
D#|-----------------------------------------------|
[Guitar 2] x4
D#|-----10-----10-----8-----8-----7---------------|
A#|---8----8------9-----9-----9-----8-------------|
F#|-9--------9------8-----8-----8-----------------|
C#|-----------------------------------------------|
G#|-----------------------------------------------|
D#|-----------------------------------------------|

[Post-Chorus]
[Guitar 1]
D#|-------------------------------------------------------------------------------------|
A#|-------------------------------------------------------------------------------------|
F#|-12s----------------------------------------12s--------------------------------------|
C#|-12s--------12b14br12b14br12----------------12s--------12b14br12b14br12--------------|
G#|-10s-------------------------12b14br12-10---10s-------------------------12b14br12-10-|
D#|-------------------------------------------------------------------------------------|

[Guitar 2] x2
D#|-------10-------10---------11-------11---------12-------12---------11-------11-|
A#|----12-------12---------12-------12---------12-------12---------12-------12----|
F#|-12-------12---------12-------12---------12-------12---------12-------12-------|
C#|-------------------------------------------------------------------------------|
G#|-------------------------------------------------------------------------------|
D#|-------------------------------------------------------------------------------|

[Verse 2]
[Guitar 1] x2
D#|---7-----7-----7---7-----7-----7---7-----7-----7---7-----7-----7-|
A#|-----8-----8---------8-----8---------8-----8---------8-----8-----|
F#|-7-----7-----7---8-----8-----8---9-----9-----9---8-----8-----8---|
C#|-----------------------------------------------------------------|
G#|-----------------------------------------------------------------|
D#|-----------------------------------------------------------------|
[Guitar 2] x2
D#|-------10-------10---------11-------11---------12-------12---------11-------11-|
A#|----12-------12---------12-------12---------12-------12---------12-------12----|
F#|-12-------12---------12-------12---------12-------12---------12-------12-------|
C#|-------------------------------------------------------------------------------|
G#|-------------------------------------------------------------------------------|
D#|-------------------------------------------------------------------------------|

[Chorus 2]
[Guitar 1] x2
D#|-10s----10---8s---8--7---10s----10---8s---8--7-|
A#|--8s-----8---8s---8--8----8s-----8---8s---8--8-|
F#|--9s-----9---9s---9--9----9s-----9---9s---9--9-|
C#|-----------------------------------------------|
G#|-----------------------------------------------|
D#|-----------------------------------------------|
[Guitar 2] x4
D#|-----10-----10-----8-----8-----7---------------|
A#|---8----8------9-----9-----9-----8-------------|
F#|-9--------9------8-----8-----8-----------------|
C#|-----------------------------------------------|
G#|-----------------------------------------------|
D#|-----------------------------------------------|

[Post-Chorus 2]
D#|-10--10---10--12--12--12--12-10-12-14--14---14--10--10--10-|
A#|-12--12---12--12--12--12--12-12-12-12--12---12--12--12--12-|
F#|-12--12---12--12--12--12--12-12-12-12--12---12--12--12--12-|
C#|-----------------------------------------------------------|
G#|-----------------------------------------------------------|
D#|-----------------------------------------------------------|

D#|-10--10---10--12--12--12--12-10-12-17--17---17--13s--------|
A#|-12--12---12--12--12--12--12-12-12-14--14---14--14s--------|
F#|-12--12---12--12--12--12--12-12-12-15--15---15--15s--------|
C#|-----------------------------------------------------------|
G#|-----------------------------------------------------------|
D#|-----------------------------------------------------------|

[Verse 3]
[Guitar 1] x4
D#|---7-----7-----7---7-----7-----7---7-----7-----7---7-----7-----7-|
A#|-----8-----8---------8-----8---------8-----8---------8-----8-----|
F#|-7-----7-----7---8-----8-----8---9-----9-----9---8-----8-----8---|
C#|-----------------------------------------------------------------|
G#|-----------------------------------------------------------------|
D#|-----------------------------------------------------------------|
[Guitar 2] x4
D#|-------10-------10---------11-------11---------12-------12---------11-------11-|
A#|----12-------12---------12-------12---------12-------12---------12-------12----|
F#|-12-------12---------12-------12---------12-------12---------12-------12-------|
C#|-------------------------------------------------------------------------------|
G#|-------------------------------------------------------------------------------|
D#|-------------------------------------------------------------------------------|

[Chorus 2]
[Guitar 1] x4
D#|-10s----10---8s---8--7---10s----10---8s---8--7-|
A#|--8s-----8---8s---8--8----8s-----8---8s---8--8-|
F#|--9s-----9---9s---9--9----9s-----9---9s---9--9-|
C#|-----------------------------------------------|
G#|-----------------------------------------------|
D#|-----------------------------------------------|
[Guitar 2] x4
D#|-----10-----10-----8-----8-----7---------------|
A#|---8----8------9-----9-----9-----8-------------|
F#|-9--------9------8-----8-----8-----------------|
C#|-----------------------------------------------|
G#|-----------------------------------------------|
D#|-----------------------------------------------|

[Outro]
[Guitar 1] x4
D#|---7-----7-----7---7-----7-----7---7-----7-----7---7-----7-----7-|
A#|-----8-----8---------8-----8---------8-----8---------8-----8-----|
F#|-7-----7-----7---8-----8-----8---9-----9-----9---8-----8-----8---|
C#|-----------------------------------------------------------------|
G#|-----------------------------------------------------------------|
D#|-----------------------------------------------------------------|

[Pause]
Repeat till fade out
D#|-10--10---10--12--12--12--12-10-12-14--14---14--10--10--10-|
A#|-12--12---12--12--12--12--12-12-12-12--12---12--12--12--12-|
F#|-12--12---12--12--12--12--12-12-12-12--12---12--12--12--12-|
C#|-----------------------------------------------------------|
G#|-----------------------------------------------------------|
D#|-----------------------------------------------------------|

Thanks for reading this tab! Remember to rate and comment and if you have any 
suggestions feel free to add 'em. I'll make sure to discuss them and improve 
the tab whenever possible.

************************************

| b   Bend
| br  Bend release
| s   Sustain

************************************
Suggest correction
comments
print report bad tab
4 comments total. Showing first comments.
+1 reply
jkofskie1776 28 Oct 13, 2016 05:40 PM

Hey, don't talk sh*t about my intro

-1 reply
MasterMicahWH 592 Oct 20, 2016 11:20 PM

Don't half ass it. Also, if you play guitar enough to tab like that then you should know the key often alines perfectly with the fret markers. lots of people on this site are either too lazy to retune or just don't know any better and it'd be a shame if you happen to be in the lazy half.

guest
You may want to rate the tab now too:
select rating
Wanna post a correction for this tab? Suggest correction