Oops, an error
Loading. Please wait.

Outskirts Of Paradise Tab

232 views 12 this week
no commentswrite comment
1 2 3 4 5
1 last vote to show rating
add to favorites
launch autoscroll
font size
0
reset
how to read this tab
guitar tuner
Autoscroll
slow
fast
+/-
esc
set tempo
stop
Help us to improve Ultimate-Guitar.com Take our survey!
×
Author
Difficulty
novice
About this tab version
I listend to the song and tried to tab it. This is what I could make of it. Let's hope it's right. Suggestions and corrections are welcome. Was this info helpful? Yes No
[Intro]

e|-------------9---11-9--------------9---11-9--------------9---11-9----------|
B|--------7------9--------------7------9--------------7------9---------------|
G|-7-9-10---10-----------7-9-10---10-----------7-9-10---10-------------------|
D|---------------------------------------------------------------------------|
A|---------------------------------------------------------------------------|
E|---------------------------------------------------------------------------|

e|-------------9---9---------------------------------------------------------|
B|--------7------9---9-------------------------------------------------------|
G|-7-9-10---10---------------------------------------------------------------|
D|---------------------------------------------------------------------------|
A|---------------------------------------------------------------------------|
E|---------------------------------------------------------------------------|
Suggest correction
Give kudos to tab author, rate the tab!
1 2 3 4 5
comments
print report bad tab
guest
You may want to rate the tab now too:
select rating
Wanna post a correction for this tab? Suggest correction