Oops, an error
Loading. Please wait.

Rearview bass

418 views 24 this week
no commentswrite comment
1 2 3 4 5
2 more votes to show rating
add to favorites
×
Save as Personal and add changes to this tab that will be seen only by you. Learn more ›
×
You can save this tab as Personal to edit and correct it or add notes. All changes will be seen only by you. Learn more »
launch autoscroll
font size
0
reset
guitar tuner
edit
Autoscroll
slow
fast
+/-
esc
set tempo
stop
-------------------------------------------------------------------------------
                           Rearview - Bad Suns
-------------------------------------------------------------------------------
Tabbed by: Asa Wentworth
Email me: asawentworth@yahoo.com

Tuning: Half-Step Down

the main riff repeats throughout almost the entire song, it's very simple.

[Intro]

0:00
F#|----------------------------------------------|
C#|---------9-9-----9-9-----9-9-----9-9----------|
G#|---11-11-----7-7------------------------------| (x6)
D#|---------------------7-7-----9-9--------------|

[Verse]

0:21
"You had your hair down..."
F#|----------------------------------------------|
C#|---------9-9-----9-9-----9-9-----9-9----------|
G#|---11-11-----7-7------------------------------| (x4)
D#|---------------------7-7-----9-9--------------|

[Chorus]

0:36
"Oh! Feel so far from home..."
F#|----------------------------------------------|
C#|---------9-9-----9-9-----9-9-----9-9----------|
G#|---11-11-----7-7------------------------------| (x6)
D#|---------------------7-7-----9-9--------------|

[Verse]

0:57
"That quarter moonlight..."
F#|----------------------------------------------|
C#|---------9-9-----9-9-----9-9-----9-9----------|
G#|---11-11-----7-7------------------------------| (x4)
D#|---------------------7-7-----9-9--------------|

1:12
F#|----------------------------------------------|
C#|-----------------------9--------11------------|
G#|---7-7-7-7-7-7-7-7----------------------------|
D#|-------------------7-7---7--9-9----9----------|

[Chorus]

1:15
"Oh! Feel so far from home..."
F#|----------------------------------------------|
C#|---------9-9-----9-9-----9-9-----9-9----------|
G#|---11-11-----7-7------------------------------| (x8)
D#|---------------------7-7-----9-9--------------|

[Solo]

1:44
F#|----------------------------------------------|
C#|---------9-9-----9-9-----9-9-----9-9----------|
G#|---11-11-----7-7------------------------------| (x4)
D#|---------------------7-7-----9-9--------------|

[Bridge]

1:58
F#|-------9--------------------------------------|
C#|--------------9------11-----------------------|
G#|---7-7---7------------------------------------| (x6)
D#|------------7---7--9----9---------------------|

[Chorus]

2:20
"Oh! Feel so far from home..."
F#|----------------------------------------------|
C#|---------9-9-----9-9-----9-9-----9-9----------|
G#|---11-11-----7-7------------------------------| (x12)
D#|---------------------7-7-----9-9--------------|

That's it! It's really easy. Hope it helps

Rate & comment!

            
            
Suggest correction
Creating personal tab
Creating personal tab
You can edit any tab online and save it as your Personal.

You can edit, replace or remove any tab part or add personal notes – all changes will be seen only by you.

Personal tabs can be accessed anytime from any device, even offline.
Learn more »
Give kudos to tab author, rate the tab!
1 2 3 4 5
comments
print report bad tab
guest
You may want to rate the tab now too:
select rating
Wanna post a correction for this tab? Suggest correction