Oops, an error
Loading. Please wait.

Salt bass

745 views 15 this week
1 commentread comment
1 2 3 4 5
3 more votes to show rating
add to favorites
×
Save as Personal and add changes to this tab that will be seen only by you. Learn more ›
×
You can save this tab as Personal to edit and correct it or add notes. All changes will be seen only by you. Learn more »
launch autoscroll
font size
0
reset
guitar tuner
edit
Autoscroll
slow
fast
+/-
esc
set tempo
stop
About this tab version
Bass tab for Salt by Bad Suns, consisting heavily of chain notes to accurately convey syncopation. Was this info helpful? Yes No
-------------------------------------------------------------------------------------
                               Salt - Bad Suns
-------------------------------------------------------------------------------------
Tabbed by: Micah Hobson
E-mail: shadowbreakmusic@gmail.com

Tuning: Half-Step Down

((Verse))
F#|---------------------------------------------------------------------------------|
C#|----------------------------------------------4h6h4------------------------------|
G#|-4x4x4x4x4x4-2x2x2x------------0x0x0-4x4x4x4x-------2x2x2x-------------0x0x0-----|
D#|-------------------0x0x0x0x2x0x----------------------------0x0x0x0x2x0x----------|


((Pre-Chorus))
F#|---------------------------------------------------------------------------------|
C#|---------------2h4--------2--------2h4---------------2h4--------2--------2h4-----|
G#|-44----22--2h4-----h4-44----2--2h4-----44----22--2h4-----h4-44----2--2h4-----h4--|
D#|----00-------------------0----------------00-------------------0-----------------|


((Chorus)
F#|-------------------------------------------|
C#|-----2h4-------2h4-------2---------2h4-----|
G#|-4-4-----0-4-4-----0-4-4---4-0-4-4-----4-0-|
D#|-------------------------------------------|


((Verse2))
F#|---------------------------------------------------------------------------------|
C#|---------------------------------------------------------------------------------|
G#|-4x4x4x4x4x4-2x2x2x------------0x0x0-4x4x4x4x4x4x-2x2x2x--------------0x0x0------|
D#|-------------------0x0x0x0x2x0x--------------------------0x0x0x0x2x0x------------|


((Pre-Chorus))
F#|---------------------------------------------------------------------------------|
C#|---------------2h4--------2--------2h4---------------2h4--------2--------2h4-----|
G#|-44----22--2h4-----h4-44----2--2h4-----44----22--2h4-----h4-44----2--2h4-----h4--|
D#|----00-------------------0----------------00-------------------0-----------------|


((Chorus))
F#|---------------------------------------------------------------------------------|
C#|-----2h4-------2h4-------2---------2h4-------2h4-------2h4-------2-------2h4-----|
G#|-4-4-----0-4-4-----0-4-4---4-0-4-4-----0-4-4-----0-4-4-----0-4-0---4-0-4-----4-0-|
D#|---------------------------------------------------------------------------------|


((Solo))
F#|------------------------------------|
C#|---------------2h4--------2-----2h4-|
G#|-44----22--2h4-----h4-44----2h4-----|
D#|----00-------------------0----------|

Post-solo bridge
F#|---------------------------------------------------------------------------------|
C#|---------------------------------------------------------------------------------|
G#|-4x4x4x4x4x4-2x2x2x------------0x0x0-4x4x4x4x4x4x-2x2x2x--------------0x0x0------|
D#|-------------------0x0x0x0x2x0x--------------------------0x0x0x0x2x0x------------|


((Pre-Chorus))
F#|---------------------------------------------------------------------------------|
C#|---------------2h4--------2--------2h4---------------2h4--------2--------2h4-----|
G#|-44----22--2h4-----h4-44----2--2h4-----44----22--2h4-----h4-44----2--2h4-----h4--|
D#|----00-------------------0----------------00-------------------0-----------------|


((Chorus))
F#|---------------------------------------------------------------------------------|
C#|-----2h4-------2h4-------2---------2h4-------2h4-------2h4-------2-------2h4-----|
G#|-4-4-----0-4-4-----0-4-4---4-0-4-4-----0-4-4-----0-4-4-----0-4-0---4-0-4-----4-0-|
D#|---------------------------------------------------------------------------------|

Thanks for reading this tab! Remember to rate and comment and if you have any 
suggestions feel free to add 'em. I'll make sure to discuss them and improve 
the tab whenever possible.

*******************************************************************************

| /  slide up
| \  slide down
| h  hammer-on
| p  pull-off
| ~  vibrato
| +  harmonic
| x  Mute

*******************************************************************************

            
            
Suggest correction
Creating personal tab
Creating personal tab
You can edit any tab online and save it as your Personal.

You can edit, replace or remove any tab part or add personal notes – all changes will be seen only by you.

Personal tabs can be accessed anytime from any device, even offline.
Learn more »
Give kudos to tab author, rate the tab!
1 2 3 4 5
comments
print report bad tab
1 comment total.
0 reply
MasterMicahWH 592 Feb 04, 2016 04:59 AM

Everything has been fixed and it should be pretty close to the real thing with the exception of a phantom note that may exist.

guest
You may want to rate the tab now too:
select rating
Wanna post a correction for this tab? Suggest correction