Oops, an error
Loading. Please wait.

Salt tab

version 2
version 2

Whole song

73 views 3 this week
no commentswrite comment
1 2 3 4 5
3 more votes to show rating
add to favorites
×
Save as Personal and add changes to this tab that will be seen only by you. Learn more ›
×
You can save this tab as Personal to edit and correct it or add notes. All changes will be seen only by you. Learn more »
launch autoscroll
font size
0
reset
how to read this tab
guitar tuner
edit
Autoscroll
slow
fast
+/-
esc
set tempo
stop
[Intro]
e|-------------|-------------|-------------|--------------------------|
B|-------12----|-------12----|-------12----|--------------------------|
G|----------13-|----------13-|----------13-|--------------------------|
D|----14-------|----14-------|----14-------|----14--------------------|
A|--0----------|--0----------|--0----------|--0-----------------------|
E|-------------|-------------|-------------|-------0------------------|

[Verse]
Stuck inside of the wrong frame
I don't feel attached to this name
My body, I must reclaim
With different eyes and no shame
e|---x------x------0------x-------------------------------------------|
B|---9------x------0------x-------------------------------------------|
G|---9------8------1------2-------------------------------------------|
D|---x------7------2------2-------------------------------------------| (x2)
A|---x------x------2------x-------------------------------------------|
E|---9------7------0------2-------------------------------------------|

[PreChorus 1]
Try, try to just hear me out
Don't ask why, why
But I'm taking this route, it's alright, right?
That's what I tell myself, but I don't know, no
e|---x-----0-----x-----x----------------------------------------------|
B|---9-----0-----x-----x----------------------------------------------| 
G|---9-----1-----6-----6----------------------------------------------|
D|---x-----2-----6-----6----------------------------------------------| (x4)
A|---x-----2-----x-----x----------------------------------------------|
E|---9-----0-----5-----5----------------------------------------------|

[Chorus]
So I ran 'til I couldn't
e|---x-----0-----x-----x----------------------------------------------|
B|---9-----0-----x-----x----------------------------------------------| 
G|---9-----1-----6-----6----------------------------------------------|
D|---x-----2-----6-----6----------------------------------------------| 
A|---x-----2-----x-----x----------------------------------------------|
E|---9-----0-----5-----5----------------------------------------------|

And I screamed 'til my voice was gone
e|---x-----0-----x-----x----------------------------------------------|
B|---9-----0-----x-----x----------------------------------------------| 
G|---9-----1-----6-----6----------------------------------------------|
D|---x-----2-----6-----6----------------------------------------------|
A|---x-----2-----x-----x----------------------------------------------|
E|---9-----0-----5-----5----------------------------------------------|

I believed what I shouldn't have....I don't know why
e|---x-----0-----x-----x-------------x------x-------------------------|
B|---9-----0-----x-----x-------------9------9-------------------------| 
G|---9-----1-----6-----6-------------9------8-------------------------|
D|---x-----2-----6-----6-------------x------9-------------------------|
A|---x-----2-----x-----x-------------x------x-------------------------|
E|---9-----0-----5-----5-------------9------7-------------------------|

These memories are nothing to me, just salt
e|-------------|-------------|-------------|--------------------------|
B|-------12----|-------12----|-------12----|--------------------------|
G|----------13-|----------13-|----------13-|--------------------------|
D|----14-------|----14-------|----14-------|----14--------------------|
A|--0----------|--0----------|--0----------|--0-----------------------|
E|-------------|-------------|-------------|-------0------------------|

[Verse]
Look in the mirror and tell me
What it is like to be free
How do I grasp reality
When I don't have an identity?
e|---x------x------0------x-------------------------------------------|
B|---9------x------0------x-------------------------------------------|
G|---9------8------1------2-------------------------------------------|
D|---x------7------2------2-------------------------------------------| (x2)
A|---x------x------2------x-------------------------------------------|
E|---9------7------0------2-------------------------------------------|

[PreChorus 2]
Who, who can I look to?
Cause I'm not like you, you
And I don't believe in the truth, truth
Cause all of my life's built on lies
e|---x-----0-----x-----x----------------------------------------------|
B|---9-----0-----x-----x----------------------------------------------| 
G|---9-----1-----6-----6----------------------------------------------|
D|---x-----2-----6-----6----------------------------------------------| (x4)
A|---x-----2-----x-----x----------------------------------------------|
E|---9-----0-----5-----5----------------------------------------------|

[Chorus]
So I ran 'til I couldn't
And I screamed 'til my voice was gone
I believed what I shouldn't have
Don't know why, ooooo
e|---x-----0-----x-----x----------------------------------------------|
B|---9-----0-----x-----x----------------------------------------------| 
G|---9-----1-----6-----6----------------------------------------------|
D|---x-----2-----6-----6----------------------------------------------| (x4)
A|---x-----2-----x-----x----------------------------------------------|
E|---9-----0-----5-----5----------------------------------------------|

[Bridge]
I know what you're implying
e|---x-----0-----x-----x----------------------------------------------|
B|---9-----0-----x-----x----------------------------------------------| 
G|---9-----1-----6-----6----------------------------------------------|
D|---x-----2-----6-----6----------------------------------------------| 
A|---x-----2-----x-----x----------------------------------------------|
E|---9-----0-----5-----5----------------------------------------------|

I'm trying to get my feet off the ground
e|---x-----0-----x-----x----------------------------------------------|
B|---9-----0-----x-----x----------------------------------------------| 
G|---9-----1-----6-----6----------------------------------------------|
D|---x-----2-----6-----6----------------------------------------------|
A|---x-----2-----x-----x----------------------------------------------|
E|---9-----0-----5-----5----------------------------------------------|

I know, I know I'm trying, I'm trying
e|---x-----0-----x-----x----------------------------------------------|
B|---9-----0-----x-----x----------------------------------------------| 
G|---9-----1-----6-----6----------------------------------------------|
D|---x-----2-----6-----6----------------------------------------------|
A|---x-----2-----x-----x----------------------------------------------|
E|---9-----0-----5-----5----------------------------------------------|

These memories are nothing to me, just salt
e|-------------|-------------|-------------|--------------------------|
B|-------12----|-------12----|-------12----|--------------------------|
G|----------13-|----------13-|----------13-|--------------------------|
D|----14-------|----14-------|----14-------|----14--------------------|
A|--0----------|--0----------|--0----------|--0-----------------------|
E|-------------|-------------|-------------|-------0------------------|

[Verse]
Stuck inside of the wrong frame
I don't feel attached to this name
My body, I must reclaim
With different eyes and no shame
e|---x------x------0------x-------------------------------------------|
B|---9------x------0------x-------------------------------------------|
G|---9------8------1------2-------------------------------------------|
D|---x------7------2------2-------------------------------------------| (x2)
A|---x------x------2------x-------------------------------------------|
E|---9------7------0------2-------------------------------------------|

[PreChorus 3]
Who, who can I look to?
Cause I'm not like you, you
And I don't believe in the truth, truth
Cause all of my life's built on lies, woo!
e|---x-----0-----x-----x----------------------------------------------|
B|---9-----0-----x-----x----------------------------------------------| 
G|---9-----1-----6-----6----------------------------------------------|
D|---x-----2-----6-----6----------------------------------------------| (x4)
A|---x-----2-----x-----x----------------------------------------------|
E|---9-----0-----5-----5----------------------------------------------|

[Chorus]
So I ran 'til I couldn't
And I screamed 'til my voice was gone
I believed what I shouldn't have
Don't know why, ooooo
e|---x-----0-----x-----x----------------------------------------------|
B|---9-----0-----x-----x----------------------------------------------| 
G|---9-----1-----6-----6----------------------------------------------|
D|---x-----2-----6-----6----------------------------------------------| (x4)
A|---x-----2-----x-----x----------------------------------------------|
E|---9-----0-----5-----5----------------------------------------------|

Yeah I ran 'til I couldn't
e|---x-----0-----x-----x----------------------------------------------|
B|---9-----0-----x-----x----------------------------------------------| 
G|---9-----1-----6-----6----------------------------------------------|
D|---x-----2-----6-----6----------------------------------------------| 
A|---x-----2-----x-----x----------------------------------------------|
E|---9-----0-----5-----5----------------------------------------------|

And I screamed 'til my voice was gone
e|---x-----0-----x-----x----------------------------------------------|
B|---9-----0-----x-----x----------------------------------------------| 
G|---9-----1-----6-----6----------------------------------------------|
D|---x-----2-----6-----6----------------------------------------------|
A|---x-----2-----x-----x----------------------------------------------|
E|---9-----0-----5-----5----------------------------------------------|

I believed what I shouldn't have....I'm trying to get my feet off the ground
e|---x-----0-----x-----x-------------x------x-------------------------|
B|---9-----0-----x-----x-------------9------9-------------------------| 
G|---9-----1-----6-----6-------------9------8-------------------------|
D|---x-----2-----6-----6-------------x------9-------------------------|
A|---x-----2-----x-----x-------------x------x-------------------------|
E|---9-----0-----5-----5-------------9------7-------------------------|

These memories are nothing to me, just salt in the wound
e|-------------|-------------|-------------|--------------------------|
B|-------12----|-------12----|-------12----|--------------------------|
G|----------13-|----------13-|----------13-|--------------------------|
D|----14-------|----14-------|----14-------|----14--------------------|
A|--0----------|--0----------|--0----------|--0-----------------------|
E|-------------|-------------|-------------|-------0------------------|



************************************

| x  Dead note

************************************

            
            
Suggest correction
Creating personal tab
Creating personal tab
You can edit any tab online and save it as your Personal.

You can edit, replace or remove any tab part or add personal notes – all changes will be seen only by you.

Personal tabs can be accessed anytime from any device, even offline.
Learn more »
Give kudos to tab author, rate the tab!
1 2 3 4 5
comments
print report bad tab
guest
You may want to rate the tab now too:
select rating
Wanna post a correction for this tab? Suggest correction