Oops, an error
Loading. Please wait.

Starks Reality Bass Tab

58 views 3 this week
no commentswrite comment
1 2 3 4 5
x 3
add to favorites
launch autoscroll
font size
0
reset
guitar tuner
Autoscroll
slow
fast
+/-
esc
set tempo
stop
Help us to improve Ultimate-Guitar.com Take our survey!
×
Author
STARK’S REALITY – BADBADNOTGOOD / GHOSTFACE KILLAH



0:05

G ||----------------------------|--------------------------------|
D ||----------------------------|---------------9--11-----9------|
A ||------------------7--9------|----------------------------11--|
E ||--------------9---------7---|9-------------------------------|

G ||----------------------------|--------------------------------|
D ||----------------------------|-------------------7--9---7--9--|
A ||----------------------------|--------------------------------|
E ||9--9------------7--8--9---9-|9--9----------------------------|

G ||----------------------------|--------------------------------|
D ||11--------------11-9--------|---------------12—12------12----|
A ||----------------------11----|------------12----------12----12|
E ||----9--------------------9--|10------------------------------|

G ||----------------------------|--------------------------------|
D ||----------------------------|--------------------------------|
A ||---------------0---4-4----4-|3---------------3--3------------|
E ||10-10-----------------------|------------------------5-3-5---|

G ||----------------------------|
D ||----------------------------|
A ||3--3--------------7--9------|
E ||--------------9---------7---|


0:30

G ||----------------------------|--------------------------------|
D ||----------------------------|----------------------11---9----|
A ||---------------------------4|--4--4-------------11--------11-|
E ||9------------------7-5--7---|--------------------------------|

G ||----------------------------|--------------------------------|
D ||-----------------------9-11-|11-11------------11---9---------|
A ||----------------9-11--------|-------------------------11-----|
E ||9--9------------------------|----------------------------9---|

G ||----------------------------|--------------------------------|
D ||----------------12----------|--------------------------------|
A ||-------------12----12-------|--------------------------------|
E ||10--------10----------10-10-|10-10------------7--9-9---7-9---|

G ||----------------------------|--------------------------------|
D ||---------------------9------|--------------------------------|
A ||------------------10---10---|-------------------10-9---------|
E ||8--8-----8-8-8--------------|8--8--8--8--8-8-8---------------|


0:55 (Tempo increases)

G ||----------------------------|--------------------------------|
D ||----------------------------|-----------9----------9---------|
A ||7--7----7---7--7---7----7---|--------10--------------10-9----|
E ||----------7------7--------7-|8--8---------8--8--8------------|

G ||----------------------------|--------------------------------|
D ||----------------------------|--------------------5-----------|
A ||7--7------5-7----------1-2--|3--3----2-0-3--3---------5-6-7--|
E ||--------7------0--2--4------|--------------------------------|

G ||------------9--9----9-------|--------------------------------|
D ||--------7-9------9----------|-----------10-------------------|
A ||7--7-------------------7----|--------10----------------------|
E ||-------------------------7--|8--8----------8--8--8--7-6-5-4--|

G ||----------------------------|
D ||------------------4-6-6-----|
A ||-----4-6-6--4-6-6-----------|
E ||4---------------------------|


1:18 (Tempo decreases again)

G ||----------------------------|--------------------------------|
D ||----------------------------|--------------------------------|
A ||-----------------------6----|4--------------4--4-------------|
E ||---------------4-6--7----7--|-------------4-------------4----|

G ||----------------------------|--------------------------------|
D ||----------------------------|--------------------------------|
A ||4---------------4-4-4-------|4--------------4--4-------------|
E ||-------------4---------4-4--|-------------4-------------4----|

G ||---------------6-4----------|----------------7---------------|
D ||--------------------6-4-----|-------------7------7-----------|
A ||4------------------------4--|5------------------------5---5--|
E ||----------------------------|--------------------------------|

G ||----------------------------|---------------------5----------|
D ||----------------------------|------------------5-----5-------|
A ||5--5-----------4--4-----4-4-|3--3---------3-3-----------3----|
E ||-------------5--------5-----|--------------------------------|

G ||----------------------------|
D ||----------------------------|
A ||3--3------------------------|
E ||----------------------------|


1:42 [Outro]

G ||----------------------------|--------------------------------|
D ||----------------------------|-------------------11---9-------|
A ||------------------7--9------|---------------11----------11---|
E ||--------------9---------7---|9-------------------------------|

G ||----------------------------|--------------------------------|
D ||----------------------------|-------------------11---9-------|
A ||------------------7--9------|---------------11----------11---|
E ||9----------7--9---------7---|9-------------------------------|

G ||----------------------------|--------------------------------|
D ||----------------------------|-------------------11---9-------|
A ||------------------7--9------|---------------11----------11---|
E ||9----------7--9---------7---|9-------------------------------|

G ||----------------------------|--------------------------------|
D ||----------------------------|-------------------11---11------|
A ||------------------7--9------|---------------11----------11---|
E ||9--9-------7--9---------7---|9--9----------------------------|

G ||----------------------------|--------------------------------||
D ||----------------------------|--------------------------------||
A ||------------------7--9------|--------------------------------||
E ||9-------------9---------7---|9-------------------------------||
Suggest correction
Give kudos to tab author, rate the tab!
1 2 3 4 5
comments
print report bad tab
guest
You may want to rate the tab now too:
select rating
Wanna post a correction for this tab? Suggest correction