Oops, an error
Loading. Please wait.

Day After Day Bass Tab

version 1
version 1

Whole song

Interactive

73 views 3 this week
no commentswrite comment
1 2 3 4 5
3 more votes to show rating
add to favorites
launch autoscroll
font size
0
reset
guitar tuner
Autoscroll
slow
fast
+/-
esc
set tempo
stop
Help us to improve Ultimate-Guitar.com Take our survey!
×
Author
Difficulty
[Intro]: "I remember finding out about you..."
G|--------------------------------------------|
D|-3------3------3------3-------3------3------|
A|--------------------------------------------|
E|--------------------------------------------|


[Verse 1]: "Looking out from my lonely room..."
G|----------------------------------------------------------------------------|
D|-\10----------8--7--5--3----\10----------8--7--5--3---------10/3------------|
A|--------10-------------------------10---------------------------------------|
E|----------------------------------------------------------------------------|


[Verse 2]: "I remember holding you while you sleep..."
G|----------------------------------|
D|-3-------3--------3-------3-------|
A|-----1----------------1-----------|
E|----------------------------------|

"Looking out from my lonely room..."
G|----------------------------------------------------------------------------|
D|-\10----------8--7--5--3----\10----------8--7--5--3----5----7---7-8---------|
A|--------10-------------------------10---------------------------------------|
E|----------------------------------------------------------------------------|


[Guitar solo]
G|-----------------10--10-------------------|
D|-3-------3---\10----------3-------3-------|
A|-----1------------------------1-----------|
E|------------------------------------------|

"Looking out from my lonely room..."
G|-----------------------------------------------------------------|
D|-\10----------8--7--5--3----\10----------8--7--5--3---------10/3-|
A|--------10-------------------------10----------------------------|
E|-----------------------------------------------------------------|


[Verse 3]: "I remember finding out about you..."
G|------------------------------|
D|-----3--------3-------3-------|
A|-1----------------1-----------|
E|------------------------------|

"Looking out from my lonely room..."
G|-----------------------------------------------------------------------------|
D|-\10----------8--7--5--3----\10----------8--7--5--3----5----7----8--7--5--3--|
A|--------10-------------------------10----------------------------------------|
E|-----------------------------------------------------------------------------|


| /   Slide up
| \   Slide down
Suggest correction
Give kudos to tab author, rate the tab!
1 2 3 4 5
comments
print report bad tab
guest
You may want to rate the tab now too:
select rating
Wanna post a correction for this tab? Suggest correction