Oops, an error
Loading. Please wait.

Shooting Stars bass

version 1
version 1

Whole song

  • Originally played on a 5-string/synth. Here's a go... Show more

Interactive

4,459 views 243 this week
1 commentread comment
1 2 3 4 5
x 5
add to favorites
×
Save as Personal and add changes to this tab that will be seen only by you. Learn more ›
×
You can save this tab as Personal to edit and correct it or add notes. All changes will be seen only by you. Learn more »
launch autoscroll
font size
0
reset
guitar tuner
edit
Autoscroll
slow
fast
+/-
esc
set tempo
stop
About this tab version
Originally played on a 5-string/synth. Here's a good cover for timing, etc. https://www.youtube.com/watch?v=jfHTaZ3jEKM. It should be noted that some of the notes he plays are in different positions as I moved them around to make the song easier to play. Was this info helpful? Yes No
BAG RAIDERS - SHOOTING STARS
        Standard Tuning

Really fun song to play, noticed there wasn't a tab exixting so I made one :)
Please feel free to rate, leave a comment or message me about any mistakes I may have made!
Enjoy!!

[Intro] ~0:24
G|--------|--------|--------|-6---6--|
D|--------|--------|--------|--------|
A|--------|-7---7-6|4-4-4--4|4--44-46|
E|0-0-0--0|0--00-0-|--------|--------|

G|--------|--------|------4-|-4-6-8-4|
D|--------|-6---6--|--------|--------|
A|--------|--------|2-2-2--2|2-4-6-2-|
E|4-4-4--4|4--44-42|--------|--------|

[Verse] ~0:38 
G|--------|--------|--------|-6---6--|
D|--------|--------|--------|--------|
A|--------|-7---7-6|4-4-4--4|4--44-46|
E|0-0-0--0|0--00-0-|--------|--------|
                                      >x4
G|--------|--------|------4-|-4-6-8-4|
D|--------|-6---6--|--------|--------|
A|--------|--------|2-2-2--2|2-4-6-2-|
E|4-4-4--4|4--44-42|--------|--------|

G|--------|--------|--------|-6---6--|
D|--------|--------|--------|--------|
A|--------|-7---7-6|4-4-4--4|4--44-46|
E|0-0-0--0|0--00-0-|--------|--------|

G|--------|--------|--------|--------|
D|--------|-6---6--|--------|--------|
A|--------|--------|2-------|--------|
E|4-4-4--4|4--44-42|--------|--------|

[Break] ~1:51

[Hook - Slapped] ~2:41
G|--------|--------|--------|--------|
D|-4h6----|--------|--------|-----4-4|
A|-------6|----64-7|-----7-7|--/1----| x6
E|4~--467-|------7-|--------|----2-2-|

[Outro - Slapped] ~3:28
G|-----7--|----8-8-|-----9--|---9--11-11|
D|---45---|--------|--------|-----------|
A|--------|---6-6--|---7----|-----9--9--|
E|--------|--------|--------|-----------|

G|--------|----8-8-|-----9--|---9--11-11|
D|---456--|--------|--------|-----------|
A|--------|---6-6--|---7----|-----9--9--|
E|--------|--------|--------|-----------|

Fin~

            
            
Suggest correction
Creating personal tab
Creating personal tab
You can edit any tab online and save it as your Personal.

You can edit, replace or remove any tab part or add personal notes – all changes will be seen only by you.

Personal tabs can be accessed anytime from any device, even offline.
Learn more »
comments
print report bad tab
1 comment total.
0 reply
simonbass93 10 3 days ago

good tab. sounds good

guest
You may want to rate the tab now too:
select rating
Wanna post a correction for this tab? Suggest correction