Oops, an error
Loading. Please wait.

Lost In The Light Tab

74,650 views 273 this week
1 commentread comment
1 2 3 4 5
excellent!
x 36
add to favorites
launch autoscroll
font size
0
reset
how to read this tab
guitar tuner
Autoscroll
slow
fast
+/-
esc
set tempo
stop
Help us to improve Ultimate-Guitar.com Take our survey!
×
Author
Difficulty
Tuning
intermediate
D A D G B E
[Verse]                   
                                   
   A/D | D                         A/D | D                           
                                                                     
e|-------------------------------|-------------------------------|   
B|---2h3-------------------------|---2h3-------------------------|   
G|---2---------------------------|---2---------------------------|   
D|---2h4-------------------------|---2h4-------------------------|   
A|--(0)--------------------------|--(0)--------------------------|   
D|-------0------------0---0------|-------0------------0---0------|   
                                                                     
         1. I'm lost in the light            I pray for the night    
  (vamp) 2. After so many words              Still nothing's heard  
                                                                    
                                                                     
   A/D | D            A/D            G                               
e|-------------------------------|-------------------------------|   
B|---2h3--------------2----------|---0---------------------------|   
G|---2----------------2----------|---0---------------------------|   
D|---2h4--------------2----------|---0---------------------------|   
A|---0---------------(0)---------|---5---------------------------|   
D|-------0------------0----------|---5----------------5---5------|   
                                                                     
         1. To take me,   to take me to                              
         2. Don't know what we should do                             
                                                               

     B     A     G

e|---2-----0-------------------------|| ||
B|---3-----2-----3-------------------||O||
G|---4-----2-----4-------------------|| ||  (repeat from bar 1, once)
D|---4-----2-----5-------------------|| ||
A|---2-----0-----5-------------------||O||
E|---------------5-------------------|| ||


So if someone can see me now, let them see you


[Verse]

   It was my greatest thrill
   But we just stood still
   You let me hold your hand 'til I had my fill

   Even countin' sheep
   Don't help me sleep
   I just toss and turn right there beside you

   So if someone could help me now, they'd help you too.



Chorus 

(this E- voicing uses the thumb to fret the bottom three notes):


     E-                              A(sus 4)         E-       D                    G

e|--------------3--------------------0----------|----3---------2-----------------3----------------|
B|--------------3--------------------5----------|----3---------3-----------------3----------------|
G|--------------0--------------------6(h7)------|----0---------2-----------------4----------------|
D|--------------2--------------------7----------|----2---------0-----------------5----------------|
A|--------------2--------------------0----------|----2---------0----------------(5)---------------|
E|--------------2--------------------x----------|----2---------0-----------------5-------------4--|

They'd help you to    See you through,      All the hard things we've all gotta do


                     E-                        A(sus 4)         D         (Dmaj7)     G

e|-------------------3-------------------------0----------|--------2---------(2)--------3--------|
B|-------------------3-------------------------5----------|--------3---------(2)--------3--------|
G|-------------------0-------------------------6(h7)------|--------2---------(2)--------4--------|
D|-------------------2-------------------------7----------|--------4---------(4)--------5--------|
A|-------------------2-------------------------0----------|--------0---------(0)-------(5)-------|
E|-------------------2-------------------------x----------|--------0---------(0)--------5--------|

Cause this life is long And so you wouldn't be wrong      Bein' free you and me on my own!



[Additional verse]

And I held my own
Still I rattled your bones
I said some awful things and I take them back

If we would try again
Just remember when
Before we were lovers, I swear we were friends

So if someone could see me now let them see you

Let them see you
See you through
All the hard things we've all gotta do
Cause this life is long
So you wouldn't be wrong
Bein' free here with me on my own!



************************************

| x    Dead note
| (n)  Ghost note
| h    Hammer-on

************************************
Suggest correction
What's this?
You can suggest a correction to this tab. Community and Mods will review your correction and vote to approve or reject it.
comments
print report bad tab
1 comment total.
+1 reply
lildesousa 16 wrote on April 29 2014, 03:54 pm

great tab, love this song

guest
You may want to rate the tab now too:
select rating
Please do not post tabs as comments. Select "correction" instead!