Oops, an error
Loading. Please wait.

Montreal Tab

7,051 views 27 this week
2 commentsread comments
1 2 3 4 5
x 17
add to favorites
launch autoscroll
font size
0
reset
how to read this tab
guitar tuner
Autoscroll
slow
fast
+/-
esc
set tempo
stop
Help us to improve Ultimate-Guitar.com Take our survey!
×
Author
Capo
2nd fret
Tuning:Capo 2    If you need a feel of the strumming patterns, here is a video of 
me playing it https://www.youtube.com/watch?feature=player_embedded&v=GLIHBy1yyKE

V.1 when    we started out   I had my doubts  I let them in
V.2 Time,    has it ways     Of stealing days from me and you 
e|------0----0---------------------------------------0-----------------------|
B|------1----1---------------------------------------1-----------------------|
G|------0----0----------4---------4------------------2-----------------------|
D|------2----2----------5---------5------------------2-----------------------|
A|------3----3----------5---------5------------------0-----------------------|
E|-----------3----------3---------4------------------------------------------|

  Now it can't begin    When I apologize-      You don't give a damn 
                        -I see it in your eyes
  But what can we do    If every time I call-  Don't seem like no plan 
                        -All of montreal 
e|-----0--------1------------1---------1----------------------0~--------------|
B|-----1--------3------------1---------1---------------------2----------------|
G|-----0--------2------------2---------1-------0---0---0----0-----------------|
D|-----2--------0------------3---------3------2---2---2----2------------------|
A|-----3--------0------------3---------3-----3---2---1----0-------------------|
E|-----3---------------------1---------1--------------------------------------|

  Honey please  Don't give up your man     |{TO VERSE 2} |  To Bridge
e|-------1-------------1-----------0-------|-------------|------0------------|
B|-------3-------------1-----------1-------|-------------|------1------------|
G|-------2-------------1-----------0-------|-------------|------3------------|
D|-------0-------------3-----------2-------|-------------|------2------------|
A|-------0-------------3-----------3-------|------0--2---|------3------------|
E|---------------------1-------------------|----3--------|-------------------|

BRIDGE:

  Of all the things we said   Laying in our bed  Which words will I hold true
e|---------1--------------------0----------------------0-------------0-------|
B|---------1--------------------1----------------------1-------------1-------|
G|---------2--------------------2----------------------0-------------3-------|
D|---------3--------------------2----------------------2-------------2-------|
A|---------3--------------------0----------------------3-------------3-------|
E|---------1-----------------------------------------------------------------|

If I could stay the course  My voice how it's horse  From screaming 'the sky is blue' 
e|---------1--------------------0---------------------1--------------3-------|
B|---------1--------------------1---------------------3--------------0-------|
G|---------2--------------------2---------------------2--------------0-------|
D|---------3--------------------2---------------------0--------------0-------|
A|---------3--------------------0---------------------0--------------2-------|
E|---------1---------------------------------------------------------3-------|

Now here we are again  Both wishing now was then  When I do all I can 
e|---------1----------------1--------------------------------0~--------------|
B|---------1----------------1-------------------------------2----------------|
G|---------2----------------1-----------------0---0---0----0-----------------|
D|---------3----------------3----------------2---2---2----2------------------|
A|---------3----------------3---------------3---2---1----0-------------------|
E|---------1----------------1------------------------------------------------|

  Honey please  Don't give up your man     
e|-------1-------------1-----------0-------|
B|-------3-------------1-----------1-------|
G|-------2-------------1-----------0-------|
D|-------0-------------3-----------2-------|
A|-------0-------------3-----------3-------|
E|---------------------1-------------------|




When, we started out I had my doubts 
I let them in 
Now it can't begin 
When I apologize 
I see it in your eyes 
You don't give a damn 
Honey please 
Don't give up your man 

Time, has it ways 
Of stealing days from me and you 
But what can we do 
If every time I call 
All of montreal 
Don't seem like no plan 
Honey please 
Don't give up on your man 

Of all the things we said 
Laying in our bed 
Which words will I hold true 
If I could stay the course 
My voice how it's horse 
From screaming 'the sky is blue' 

Now here we are again 
Both wishing now was then 
When I do all I can 
Honey please 
Don't give up on your man
Suggest correction
comments
print report bad tab
2 comments total.
0 reply
jakelowe90 10 Nov 14, 2013 04:29 PM

Great tab! & a great song! Nice one.

0 reply
kokokong 185 Feb 08, 2014 01:44 AM

Thank you, glad you enjoyed it as much as I did!

guest
You may want to rate the tab now too:
select rating
Wanna post a correction for this tab? Suggest correction