Oops, an error
Loading. Please wait.

Your Sweet Touch tab

version 1
version 1

Whole song

by Bahamas
1,117 views 12 this week
no commentswrite comment
1 2 3 4 5
1 last vote to show rating
add to favorites
×
Save as Personal and add changes to this tab that will be seen only by you. Learn more ›
×
You can save this tab as Personal to edit and correct it or add notes. All changes will be seen only by you. Learn more »
launch autoscroll
font size
0
reset
how to read this tab
guitar tuner
edit
Autoscroll
slow
fast
+/-
esc
set tempo
stop
Author
Link to it being played: 
https://www.youtube.com/watch?v=-UEKGu_ST2M
[Intro]
e|--5----7--5------------5-|----5----7--5-----------------------------------------------------|
B|--5~--------8-5~-------5-|----5~--------8-5--------------5--8---3--3--3-----3---------------|
G|--5~-------------------5-|----5~-------------------------5------4h5---4--4h5----4-------4---| x2
D|--7~-------------------7-|----7~-------------------------7------3-----5---------5-------5---|
A|--0~-------------0-0---0-|----0~-------------0-0--0-0----0------------5---------5-------5---|
E|-------------------------|--------------------------------------3-----3-------3~----3-3-----|
   strum                      strum                       strum

   
[Verse]
Tell me what to say to make it go away and Ill do that
   Am                                 G
e|----5-------5------5-------5--------3------3-------3------3-----------|
B|----5-------5------5-------5--------3------3-------3------3-----------|
G|----5-------5------5-------5--------4------4-------4------4-----------|
D|----7-------7------7-------7--------5------5-------5------5-----------|
A|----7-------7------7-------7--------5------5-------5------5-----------|
E|-5-----5-5------5-----5-5---------3----3-3------3-----3-3-------------|

Tell me what to do to make it up to you and I'll do that too
     Am                                G
e|----5-------5------5-------5--------3------3-------3------------------|
B|----5-------5------5-------5--------3------3-------3------------------|
G|----5-------5------5-------5--------4------4-------4------------------|
D|----7-------7------7-------7--------5------5-------5------------------|
A|----7-------7------7-------7--------5------5-------5------------------|
E|-5-----5-5------5-----5-5---------3----3-3------3-----3--5--7---------|


[Chorus]
Time means so much if all I have is your sweet touch
And so it goes, and so it goes, which way I've never ever known
     C               Am          G          Em         C         Am       C  Cm G
e|---8-----8--8------5---5-5-----3---3-3----0---0-0----0---0-0---0--0-0---0--0--3------|
B|---8-----8--8------5---5-5-----3---3-3----0---0-0----1---1-1---1--1-1---1--0--0------|
G|---9-----9--9------5---5-5-----4---4-4----0---0-0----0---0-0---2--2-2---0--0--0------|
D|---10----10-10-----7---7-7-----5---5-5----2---2-2----2---2-2---2--2-2---2--1--0------|
A|---10----10-10-----7---7-7-----5---5-5----2---2-2----3---3-3--0--0------3--3--2------|
E|-8-8--8--8--8----5---5-------3---3-------0--0-------3--3----------------3--3--3------|
   

[Instrumental]

e|--5----7--5------------5-|----5----7--5-----------------------------------------------------|
B|--5~--------8-5~-------5-|----5~--------8-5--------------5--8---3--3--3-----3---------------|
G|--5~-------------------5-|----5~-------------------------5------4h5---4--4h5----4-------4---|x2
D|--7~-------------------7-|----7~-------------------------7------3-----5---------5-------5---|
A|--0~-------------0-0---0-|----0~-------------0-0--0-0----0------------5---------5-------5---|
E|-------------------------|--------------------------------------3-----3-------3~----3-3-----|
   strum                      strum                       strum

   
[Verse]
Do I hold you back in all the ways I lack what ya need dear
   Am                                 G
e|----5-------5------5-------5--------3------3-------3------3-----------|
B|----5-------5------5-------5--------3------3-------3------3-----------|
G|----5-------5------5-------5--------4------4-------4------4-----------|
D|----7-------7------7-------7--------5------5-------5------5-----------|
A|----7-------7------7-------7--------5------5-------5------5-----------|
E|-5-----5-5------5-----5-5---------3----3-3------3-----3-3-------------|

And headed toward the end you were looking for a friend and that ain't me
Dear
   Am                                 G
e|----5-------5------5-------5--------3------3-------3------------------|
B|----5-------5------5-------5--------3------3-------3------------------|
G|----5-------5------5-------5--------4------4-------4------------------|
D|----7-------7------7-------7--------5------5-------5------------------|
A|----7-------7------7-------7--------5------5-------5------------------|
E|-5-----5-5------5-----5-5---------3----3-3------3-----3--5--7---------|


[Chorus]
Time means so much if all I have is your sweet touch
And so it goes, and so it goes, which way I'll never never know
     C               Am          G          Em         C         Am       C  Cm G
e|---8-----8--8------5---5-5-----3---3-3----0---0-0----0---0-0---0--0-0---0--0--3------|
B|---8-----8--8------5---5-5-----3---3-3----0---0-0----1---1-1---1--1-1---1--0--0------|
G|---9-----9--9------5---5-5-----4---4-4----0---0-0----0---0-0---2--2-2---0--0--0------|
D|---10----10-10-----7---7-7-----5---5-5----2---2-2----2---2-2---2--2-2---2--1--0------|
A|---10----10-10-----7---7-7-----5---5-5----2---2-2----3---3-3--0--0------3--3--2------|
E|-8-8--8--8--8----5---5-------3---3-------0--0-------3--3----------------3--3--3------|


[Solo]

e|----------------------------------------------------------------------1---------1----|
B|-----------------------3-3---------------------3-3--------------------0---------0----|
G|-------------------2s4------2h0------------2s4-----2h0-------0-0------0------0--0----|
D|--------------------------------2 0 2------------------2-0-2----------0---0h2-0-0----|
A|----------------0~-----------------------0~---------------------------2---------2----|
E|-3-3-3--3-3-3-4----------------------------------------------------3--3---------3----|

e|---------------------------------------------------------------------1---------------|
B|-------------------3-3--------------------3-3--3h5p3-3---------------0---------------|
G|---------------2s4-----2h0------------2s4-----------4--2h4p2---0~----0---------------|
D|---------------------------2-0-2-----------------------------2-------0---------------|
A|-----------0~----------------------0~--------------------------------2---------------|
E|--3--3-3-4--------------------------------------------------------3--3---------------|

e|----------------------------------------------------------10--10-----------------1---|
B|----------------8h10p8--------10-10-10-8h10p8---8------10b12-----8h10p8---8------0---|
G|------------7h9--------9~---------------------9-------------------------9--------0---|
D|------5h7s9----------------------------------------------------------------------0---|
A|--5h7----------------------0~-----------------------0~---------------------------2---|
E|-------------------------------------------------------------------------------3-3---|

e|--15-12-----------------------------------------------------|
B|--------15-12-15-12-15-12-15-12-15-12-15-12-----------------|
G|--------------------------------------------14-12-----------|
D|------------------------------------------------------------|
A|------------------------------------------------------------|
E|------------------------------------------------------------|

e|-----------------------------------|
B|-------15-15-15-15--13-13-13-13-12-|
G|-------16-16-16-16--14-14-14-14-12-| x2
D|-----------------------------------|
A|--0~-------------------------------|
E|-----------------------------------|

e|-----1---------------|
B|-----0---------------|
G|-----0---------------|
D|-----0---------------|
A|-----2---14----------|
E|---3-3---15----------|


[Outro]

e|--5----7--5------------5-|----5----7--5-----------------------------------------------------|
B|--5~--------8-5~-------5-|----5~--------8-5--------------5--8---3--3--3-----3---------------|
G|--5~-------------------5-|----5~-------------------------5------4h5---4--4h5----4-------4---|x2
D|--7~-------------------7-|----7~-------------------------7------3-----5---------5-------5---|
A|--0~-------------0-0---0-|----0~-------------0-0--0-0----0------------5---------5-------5---|
E|-------------------------|--------------------------------------3-----3-------3~----3-3-----|
   strum                      strum                       strum




************************************

| h   Hammer-on
| p   Pull-off
| b   Bend
| ~   Let Ring
| s   Slide

************************************
Suggest correction
Creating personal tab
Creating personal tab
You can edit any tab online and save it as your Personal.

You can edit, replace or remove any tab part or add personal notes – all changes will be seen only by you.

Personal tabs can be accessed anytime from any device, even offline.
Learn more »
Give kudos to tab author, rate the tab!
1 2 3 4 5
comments
print report bad tab
guest
You may want to rate the tab now too:
select rating
Wanna post a correction for this tab? Suggest correction