Oops, an error
Loading. Please wait.

I Was Born In A Marathon Tab

by Baio
10 views 1 this week
no commentswrite comment
1 2 3 4 5
3 more votes to show rating
add to favorites
launch autoscroll
font size
0
reset
how to read this tab
guitar tuner
Autoscroll
slow
fast
+/-
esc
set tempo
stop
Help us to improve Ultimate-Guitar.com Take our survey!
×
Author
Difficulty
novice
This is for the guitar part starting somewhere around 2:12. It is repeated throughout the whole rest of
the song.

   Dm                     C                  
e|---------------------------------------------------------------------------|
B|----6---6---6---6---6------5---5---5---5---5-------------------------------|
G|---------------------------------------------------------------------------|
D|---------------------------------------------------------------------------|
A|-5----5---5---5---5-----3----3---3---3---3---------------------------------|
E|---------------------------------------------------------------------------|


   Am                     G
e|---------------------------------------------------------------------------|
B|---------------------------------------------------------------------------|
G|----5---5---5---5---5------4---4---4---4---4-------------------------------|
D|---------------------------------------------------------------------------|
A|---------------------------------------------------------------------------|
E|-5----5---5---5---5-----3----3---3---3---3---------------------------------|
Suggest correction
Give kudos to tab author, rate the tab!
1 2 3 4 5
comments
print report bad tab
guest
You may want to rate the tab now too:
select rating
Wanna post a correction for this tab? Suggest correction