Oops, an error
Loading. Please wait.

Tisina tab

version 3
version 3

Whole song

Interactive

by Bajaga
1,840 views 36 this week
no commentswrite comment
1 2 3 4 5
2 more votes to show rating
add to favorites
×
Save as Personal and add changes to this tab that will be seen only by you. Learn more ›
×
You can save this tab as Personal to edit and correct it or add notes. All changes will be seen only by you. Learn more »
launch autoscroll
font size
0
reset
how to read this tab
guitar tuner
edit
Autoscroll
slow
fast
+/-
esc
set tempo
stop
Author
-----------------------------------------------------------------
TISINA - Bajaga
-----------------------------------------------------------------
Tabbed by: Neno 

Tuning:Standard - EADGBe


This is the complete tab for Tisina including all the guitar parts.
The other tabs have most of the parts except none have the guitar solo 
so I included that in the end. It also includes the intro the the exact
same voicing as the recording.


FIGURE 1:
                                *This can be fret 3 or 2, both work but its hard to hear (I use 2)
e|----------------------------------------------------------------|
B|-------1---------------1---------------3---------------3--------|
G|-----2----2----------0----0----------0----0----------0----0-----|
D|---2--------2------2--------2------0--------0------0--------0---| Repeated throughout the song
A|-0------------2--3------------*---------------2---------------2-|
E|---------------------------------3---------------3--------------|


FIGURE 2:

e|---------------------------------------------------------------|
B|---------------------------------------------------------------|
G|----------4--5---4--5---/9--7------4------------4--------------|
D|---5--7-------------------------------7--5---------7--5--7\----|
A|---------------------------------------------------------------|
E|---------------------------------------------------------------|

e|---------------------------------------------------------------|
B|------------------------------------10--8----10--8---10--10/---|
G|----------4--5---4--5---/9--7----------------------------------|
D|---5--7--------------------------------------------------------|
A|---------------------------------------------------------------|
E|---------------------------------------------------------------|

e|---------------------------------------------------------------|
B|---------------------------------------------------------------|
G|----------4--5---4--5---/9--7------4------------4--------------|
D|---5--7-------------------------------7--5---------7--5--7\----|
A|---------------------------------------------------------------|
E|---------------------------------------------------------------|

* 2 guitars arranged for 1
e|---------------------------------------------------------------|
B|-13---12------12--13-------------13--12------------------------|
G|-14---12------12--14--14--12-------------14--12----12--12h14\--|
D|----------------------14--12-----10--9-------------------------|
A|-----------------------------------------12--10----10--10h12\--|
E|---------------------------------------------------------------|


FIGURE 3: Replaces FIGURE 2 at one point

e|------------------------------------8-7-----8-7----8-7---------|
B|-/10--8------8---------------10--8------8-------8------8--8--8/|
G|--------7/9-----7--5-4-----------------------------------------|
D|-----------------------7-5-------------------------------------| x2
A|---------------------------------------------------------------|
E|---------------------------------------------------------------|

**Play FIGURE 2 immediately after**


Solo:

^ = whole bend
b = half bend
                           
e|------------------------12-------------------------------------------------|
B|---------------------15-15^-15--13h15--15^-13--15-15--13h15-15^--15--15----|
G|--14--14--14--12-14--------------------------------------------------------|
D|---------------------------------------------------------------------------|
A|---------------------------------------------------------------------------|
E|---------------------------------------------------------------------------|
                                                       
e|---------------------------------------------------------------------------|
B|-15^--13-10--10--10-10--13^-10--8-10-8---8------------------5-5------------|
G|---------------------------------------9---9----7-7h9p7-5-7-7b7^-7-5-7h9p7-|
D|---------------------------------------------10----------------------------|
A|---------------------------------------------------------------------------|
E|---------------------------------------------------------------------------|

e|---------------------------------------------------------------------------|
B|---------------------------------------------------------------------------|
G|-7^-5----7^-5----7^-5----7^-5----7p5--7b----7p5--7b----7p5--7b----7p5--7b--|
D|---------------------------------------------------------------------------|
A|---------------------------------------------------------------------------|
E|---------------------------------------------------------------------------|


e|------------------------------------------------------------------------12-|
B|-----------------------------------------------13-15---13-15-15^-15-15--15^|
G|-7p5--7^--7h9p7-5---7p5--7^--7h9p7-5--7p5--/14-----------------------------|
D|---------------------------------------------------------------------------|
A|---------------------------------------------------------------------------|
E|---------------------------------------------------------------------------|

The ending fades out while continuing that last bend along with some other
notes in the Am pentatonic scale.


| /  slide up
| \  slide down
| h  hammer-on
| p  pull-off
| ~  vibrato
| +  harmonic
| x  Mute note

            
            
Suggest correction
Creating personal tab
Creating personal tab
You can edit any tab online and save it as your Personal.

You can edit, replace or remove any tab part or add personal notes – all changes will be seen only by you.

Personal tabs can be accessed anytime from any device, even offline.
Learn more »
Give kudos to tab author, rate the tab!
1 2 3 4 5
comments
print report bad tab
guest
You may want to rate the tab now too:
select rating
Wanna post a correction for this tab? Suggest correction