Oops, an error
Loading. Please wait.

Verujem Ne Verujem Bass Tab

version 1
version 1

Whole song

Interactive

842 views 3 this week
no commentswrite comment
1 2 3 4 5
please rate
add to favorites
launch autoscroll
font size
0
reset
guitar tuner
Autoscroll
slow
fast
+/-
esc
set tempo
stop
Help us to improve Ultimate-Guitar.com Take our survey!
×
Author
Difficulty
novice
bajaga i instruktori - verujem, ne verujem bass tab
Trajanje pesme: 3:26

...bass krece oko 36 sekunde...

glavni riff (2x)

g------------------------0-2------------|
d------2----------0-2-3------3-2-0------|
a--0-3---3---2-3-------------------3-2--|
e----------3----------------------------|

...pa onda bridge...(2x)

g---------------------------------------|
d----------------0-2-3------------------|
a------3--3--2-3-------3----3--3---3-2--|
e--5--5----3-------------1------3-------|

glavni riff (4x)

bridge (2x)

glavni riff (6x)

bridge (2x)

... i onda glavni riff do kraja...
Suggest correction
Give kudos to tab author, rate the tab!
1 2 3 4 5
comments
print report bad tab
guest
You may want to rate the tab now too:
select rating
Please do not post tabs as comments. Select "correction" instead!