Oops, an error
Loading. Please wait.

Hearts On Fire tab

22 views 1 this week
no commentswrite comment
1 2 3 4 5
3 more votes to show rating
add to favorites
×
Save as Personal and add changes to this tab that will be seen only by you. Learn more ›
×
You can save this tab as Personal to edit and correct it or add notes. All changes will be seen only by you. Learn more »
launch autoscroll
font size
0
reset
how to read this tab
guitar tuner
edit
Autoscroll
slow
fast
+/-
esc
set tempo
stop
About this tab version
The solo may be slightly off but still sounds fairly accurate. Was this info helpful? Yes No
[Intro]
                                PM                    v ^ v ^
eb|---------------------------|--------------------|------------|
Bb|---------------------------|--------------------|------------|
Gb|--9--7---------------------|--------------------|--9-9-9-7---|
Db|--9-----9------7--5b-------|-----------7-5------|--9-9-9-7---|
Ab|-----------10---------7~~--|-(5)---5-7-----7~~--|------------|
Eb|---------------------------|-----7--------------|------------|
                                            
                                                      v ^ v ^
eb|---------------------------|--------------------|------------|
Bb|---------------------------|--------------------|------------|
Gb|--9--7---------------------|--------------------|--9-9-9-7---|
Db|--9-----9------7--5b-------|-----------7-5------|--9-9-9-7---|
Ab|-----------10---------7~~--|-------5-7-----7~~--|------------|
Eb|---------------------------|-----7--------------|------------|

                                                      v ^ v ^
eb|--------------------------|---------------------|------------|
Bb|--------------------------|---------------------|------------|
Gb|--9--7--------------------|---------------------|--9-9-9-7---|
Db|--9-----7\5b---7--5b------|------------7-5------|--9-9-9-7---|
Ab|----------------------7~~-|-------7h10-----7~~--|------------|
Eb|--------------------------|--7h10---------------|------------|

                                                     v ^ v ^     
eb|---------------------------|-------------------|------------|
Bb|---------------------------|-------------------|------------|
Gb|--9--7---------------------|-------------------|--9-9-9-7---|
Db|--9-----9------7--5b-------|-------------------|--9-9-9-7---|
Ab|-----------10---------7~~--|--5h7--------------|------------|
Eb|---------------------------|------5h7-3h5-5-0--|------------|

 [Verse]
                                                      v ^ v ^
eb|--------------------------|---------------------|------------|
Bb|--------------------------|---------------------|------------|
Gb|--9--7--------------------|---------------------|--9-9-9-7---|
Db|--9-----9------7--5b------|------------7-5------|--9-9-9-7---|
Ab|-----------10---------7~~-|-------7h10-----7~~--|------------|
Eb|--------------------------|--7h10---------------|------------|

                                                      v ^ v ^
eb|--------------------------|---------------------|------------|
Bb|--------------------------|---------------------|------------|
Gb|--9--7--------------------|---------------------|--9-9-9-7---|
Db|--9-----7\5b---7--5b------|------------7-5------|--9-9-9-7---|
Ab|----------------------7~~-|-------7h10-----7~~--|------------|
Eb|--------------------------|--7h10---------------|------------|

                                                      v ^ v ^
eb|--------------------------|---------------------|------------|
Bb|--------------------------|---------------------|------------|
Gb|--9--7--------------------|---------------------|--9-9-9-7---|
Db|--9-----9------7--5b------|------------7-5------|--9-9-9-7---|
Ab|-----------10---------7~~-|-------7h10-----7~~--|------------|
Eb|--------------------------|--7h10---------------|------------|

                                                     v ^ v ^     
eb|---------------------------|-------------------|------------|
Bb|---------------------------|-------------------|------------|
Gb|--9--7---------------------|-------------------|--9-9-9-7---|
Db|--9-----9------7--5b-------|-------------------|--9-9-9-7---|
Ab|-----------10---------7~~--|--5h7--------------|------------|
Eb|---------------------------|------5h7-3h5-5-0--|------------|

                                                    v ^ v ^
eb|--------------------------|-------------------|------------|
Bb|--------------------------|-------------------|------------|
Gb|--9--7--------------------|-------------------|--9-9-9-7---|
Db|--9-----9--9---7--5-------|--5-------7-5------|--9-9-9-7---|
Ab|-----------10-----5---7~~-|--5---5-7-----7~~--|------------|
Eb|--------------------------|----7--------------|------------|

                                                      v ^ v ^
eb|--------------------------|---------------------|------------|
Bb|--------------------------|---------------------|------------|
Gb|--9--7--------------------|---------------------|--9-9-9-7---|
Db|--9-----9------7--5b------|------------7-5------|--9-9-9-7---|
Ab|-----------10---------7~~-|-------7h10-----7~~--|------------|
Eb|--------------------------|--7h10---------------|------------|

                                                      v ^ v ^
eb|--------------------------|---------------------|------------|
Bb|--------------------------|---------------------|------------|
Gb|--9--7--------------------|---------------------|--9-9-9-7---|
Db|--9-----9--9---7--5-------|------------7-5------|--9-9-9-7---|
Ab|-----------10--7------7~~-|-------7h10-----7~~--|------------|
Eb|--------------------------|--7h10---------------|------------|
                                                      
eb|--------------------------|---------------------|---------------------|--------------------------------|
Bb|--------------------------|---------------------|---------------------|--------------------------------|
Gb|--9--7--------------------|---------------------|---------------------|--------------------------------|
Db|--9-----9------7--5b------|---------------------|---------------------|--------------5----------5------|
Ab|-----------10---------7~--|--5h7----------------|--5h7-----------5----|--5h7-----5h7---7~~--5h7--h7~~--|
Eb|--------------------------|------5h7-3h5p0-3----|------5h7-3h5p0------|------5h7-----------------------|

 [Solo]
eb|-------------------------------------------------------------------------------|
Bb|--------13---------16fb-----16-------------------------------------------------|
Gb|--13-15----13------------------17-15-----15p13----15p13----15p13----13h17\15~-\|
Db|--------------15---------------------18-------h15------h15------h15------------|
Ab|-------------------------------------------------------------------------------|
Eb|-------------------------------------------------------------------------------|

eb|------------------------------------12h15p12-----------------------------------------------------------|
Bb|------------------------8-10-12---15-----------15p12---------------------------------------------------|
Gb|------------------7---9-----------------------------14p12--12h14/16\-12p9------------------------------|
Db|------5-----5-7-9----------------------------------------14--------------12p9--------------------------|
Ab|--5-7---7----------------------------------------------------------------------12-11--------11---------|
Eb|------------------------------------------------------------------------------------------12--12---0---|

                         PM    PM
eb|-----------------------------------------------------|
Bb|--16---------16----16----16----16-----16--16--16-----|
Gb|--15hbr~~----15----15----15----15----15--15--13------|
Db|----------------------13----13-------------------15--|
Ab|-----------------------------------------------------|
Eb|-----------------------------------------------------|

                   PM    PM    PM    PM    PM
eb|---------------------------------------------------------|
Bb|--16---------16----16----16----16----16----16------------|
Gb|--15hbr~~----15----15----15----15----15----15--15-13-----|
Db|----------------13----13----13----13----13-----------15--|
Ab|---------------------------------------------------------|
Eb|---------------------------------------------------------|

                        PM    PM    PM    PM    PM
eb|-------------------------------------------------------------|
Bb|--16---------16--16----16----16----16----16----16------------|
Gb|--15hbr~~----15--15----15----15----15----15----15--15-13-----|
Db|---------------------13----13----13----13----13----------15--|
Ab|-------------------------------------------------------------|
Eb|-------------------------------------------------------------|

eb|--15-----15--15--------15----15-15---15-15---15-15---15-15---15-15---15------|
Bb|--16fb-----------16fb---16fb----16fb----16fb----16fb----16fb----16fb----16\--|
Gb|-----------------------------------------------------------------------------|
Db|-----------------------------------------------------------------------------|
Ab|-----------------------------------------------------------------------------|
Eb|-----------------------------------------------------------------------------|

 [Verse]
                                PM                    v ^ v ^
eb|---------------------------|--------------------|------------|
Bb|---------------------------|--------------------|------------|
Gb|--9--7---------------------|--------------------|--9-9-9-7---|
Db|--9-----9------7--5b-------|-----------7-5------|--9-9-9-7---|
Ab|-----------10---------7~~--|-(5)---5-7-----7~~--|------------|
Eb|---------------------------|-----7--------------|------------|

                                                      v ^ v ^
eb|--------------------------|---------------------|------------|
Bb|--------------------------|------8h10-10-8------|------------|
Gb|--9--7--------------------|--5h7-----------7~~--|--9-9-9-7---|
Db|--9-----9------7--5b------|--------------------7|--9-9-9-7---|
Ab|-----------10---------7~~-|---------------------|------------|
Eb|--------------------------|---------------------|------------|

                                                      v ^ v ^
eb|--------------------------|---------------------|------------|
Bb|--------------------------|---------------------|------------|
Gb|--9--7--------------------|---------------------|--9-9-9-7---|
Db|--9-----9------7--5b------|------------7-5------|--9-9-9-7---|
Ab|-----------10---------7~~-|-------7h10-----7~~--|------------|
Eb|--------------------------|--7h10---------------|------------|

                                                     v ^ v ^     
eb|---------------------------|-------------------|------------|
Bb|---------------------------|-------------------|------------|
Gb|--9--7---------------------|-------------------|--9-9-9-7---|
Db|--9-----9------7--5b-------|-------------------|--9-9-9-7---|
Ab|-----------10---------7~~--|--5h7--------------|------------|
Eb|---------------------------|------5h7-3h5-5-0--|------------|

                                                      v ^ v ^
eb|--------------------------|---------------------|------------|
Bb|--------------------------|---------------------|------------|
Gb|--9--7--------------------|---------------------|--9-9-9-7---|
Db|--9-----9------7--5b------|------------7-5------|--9-9-9-7---|
Ab|-----------10---------7~~-|-------7h10-----7~~--|------------|
Eb|--------------------------|--7h10---------------|------------|

                                                      v ^ v ^
eb|--------------------------|---------------------|------------|
Bb|--------------------------|---------------------|------------|
Gb|--9--7--------------------|---------------------|--9-9-9-7---|
Db|--9-----9------7--5b------|------------7-5------|--9-9-9-7---|
Ab|-----------10---------7~~-|-------7h10-----7~~--|------------|
Eb|--------------------------|--7h10---------------|------------|

                                                      v ^ v ^
eb|--------------------------|---------------------|------------|
Bb|--------------------------|---------------------|------------|
Gb|--9--7--------------------|---------------------|--9-9-9-7---|
Db|--9-----7\5b---7--5b------|------------7-5------|--9-9-9-7---|
Ab|----------------------7~~-|-------7h10-----7~~--|------------|
Eb|--------------------------|--7h10---------------|------------|

eb|--------------------------|---------------------|---------------------|--------------------|
Bb|--------------------------|---------------------|---------------------|--------------------|
Gb|--9--7--------------------|---------------------|---------------------|--------------------|
Db|--9-----9------7--5b------|---------------------|----------------5----|----------------7---|
Ab|-----------10---------7~--|--5h7----------------|--5h7-----------5----|--5h7-----------5---|
Eb|--------------------------|------5h7-3h5p0-3----|------5h7-3h5p0------|------5h7-3h5p0-----|


************************************

| b    Bend
| fb   Full-bend
| (n)  Ghost note
| ~    Vibrato
| \    Slide down
| /    Slide up
| h    Hammer-on
| p    Pull-off

************************************

            
            
Suggest correction
Creating personal tab
Creating personal tab
You can edit any tab online and save it as your Personal.

You can edit, replace or remove any tab part or add personal notes – all changes will be seen only by you.

Personal tabs can be accessed anytime from any device, even offline.
Learn more »
Give kudos to tab author, rate the tab!
1 2 3 4 5
comments
print report bad tab
guest
You may want to rate the tab now too:
select rating
Wanna post a correction for this tab? Suggest correction