Oops, an error
Loading. Please wait.

Living Chords

version 2
version 2

Whole song

16 views 16 this week
no commentswrite comment
1 2 3 4 5
3 more votes to show rating
add to favorites
launch autoscroll
font size
0
reset
transpose
0
reset
display chords
guitar tuner
Autoscroll
slow
fast
+/-
esc
set tempo
stop
Help us to improve Ultimate-Guitar.com Take our survey!
×
Author
Difficulty
novice
Below the chords & lyrics you can also find the tab for the guitarlick from the instrumental

[Intro]

Am - G - C - E


[Verse]

Am    G    C       E
Stuck in a rut you can't get out
Am      G        C       E
There's too much causing you doubt
Am  G       C       E   
No cash, no job, no self-esteem
Am  G      C      E
Me I'm takin' and I'm givin'


[Pre-Chorus]

Am     G      C              E
If you got a head you should use it
Am    G       C             E
Opportunity, don't want to lose it
Am      G      C                 E
Climb over the walls, break down all the doors
Am        G      C     E 
When your future calls


[Chorus]

          Am      G    
Don't let nothing hold you down
C       E                 Am G C E 
Nothing hold you down, down

          Am      G
Don't let nothing hold you down
C       E                 Am G C E 
Nothing hold you down, down


[Instrumental]

7x  Am - G - C - E
    Am - G


[Chorus 2]

C    E             Am    G   
Just surviving and living
C    E             Am    G
Just surviving and living
C    E
Just surviving and


[Verse]

Am    G    C       E
Stuck in a rut you can't get out
Am      G        C       E
There's too much causing you doubt
Am  G       C       E   
No cash, no job, no self-esteem
Am  G      C      E
Me I'm takin' and I'm givin'


[Pre-Chorus]

Am       G          C             E
They may wreck your dreams if you let them
Am        G        C              E
Keep them goals in sight, don't forget them
Am        G       C             E
Keep your head up high, yes the future's bright
Am        G        C    E
Keep your head up high


[Chorus]

          Am      G    
Don't let nothing hold you down
C       E                 Am G C E
Nothing hold you down, down

          Am      G
Don't let nothing hold you down
C       E                 Am G C E 
Nothing hold you down, down


[Instrumental]

7x  Am - G - C - E
    Am - G


[Chorus 2]

C     E           Am    G   
Just surviving and living
C     E           Am    G
Just surviving and living
C     E          Am  G 
Just surviving and
C     E          Am  G 
Just surviving and..



[Guitar lick]

e|------------------------------------------------------------|
B|------------------------------------------------------------|
G|-----5--7b----7--(5)-5--------7b--7--5--7-----7b--7--5------|
D|--7--------------------7------------------------------------|
A|------------------------------------------------------------|
E|------------------------------------------------------------|

e|------------------------------------------------------------|
B|------------------------------------------------------------|
G|-----5--7b----7--(5)-5--------------------------------------|
D|--7--------------------7------x-5---x-5---x5--x-5-x-5-------|
A|------------------------------------------------------------|
E|------------------------------------------------------------|



************************************

| (n)  Ghost note
| b    Bend
| x    Dead note

************************************
Suggest correction
Give kudos to tab author, rate the tab!
1 2 3 4 5
comments
print report bad tab
guest
You may want to rate the tab now too:
select rating
Wanna post a correction for this tab? Suggest correction