Oops, an error
Loading. Please wait.

So Hort Sich Der Sommer An Bass Tab

233 views 1 this week
no commentswrite comment
1 2 3 4 5
3 more votes to show rating
add to favorites
launch autoscroll
font size
0
reset
guitar tuner
Autoscroll
slow
fast
+/-
esc
set tempo
stop
Help us to improve Ultimate-Guitar.com Take our survey!
×
Author
Difficulty
novice
This my Tab for the amazing song "So hört sich der Sommer an" by Bakkushan.
I'm sure, that this is 100 % right, but if there is a fault, leave a comment.

Have fun and don't forget to rate! ;)

Intro (0:02)(Bass with distortion)
G|----------------|               G|----------------|
D|----------------|               D|----------------|
A|----------------| 7x      then: A|8-8--8--7/~~~~--|
E|5-5--5--5-5--5--|               E|----------------|
  E E. E. E E. E.                   E E. E. Q.    E

Main Riff/Chorus
G|------------|------------|------------|------------|
D|------------|------------|------------|------------|
A|-------7-8~~|~8-8~~7-----|-------7-8~~|~~~~~7--7---| 2x
E|5-5--8------|--------013-|555--8------|------------|
  E E. E E E.  SE E. E -3-  -3- SE E E.  SQ   E. E. S

Verse
G|-----------------------|------------------------|                G|----|
D|----------------12--12-|------------------------|                D|----|
A|12-12-12-12-15---------|------------------------| 7x   8th time: A|12.-| 
E|-----------------------|13-13-13-13-12-12-12-12-|                E|----|
  E  E  E  E  E.  E.  E   E  E  E  E  E  E  E  E                     E

Main Riff
Pre-Verse (4 times Intro Riff without distortion)
Verse
Main Riff (2x)

Bridge (first: Verse Riff 4 times; then from (2:25) to (2:56) Intro Riff without distortion)
Four seconds pause
Main Riff (2x)

Outro (3 Times Verse Riff; then):
G|------------------------------|------------------------|
D|------------------------------|------------------------|
A|12-12-15h12-15h12-12-15h12-15h|12-12-15h12-15h12/~~~~--|
E|------------------------------|------------------------|
  E  E  S  E  S  E  E  S  E  S   E  E  S  E  S   Q.
Suggest correction
Give kudos to tab author, rate the tab!
1 2 3 4 5
comments
print report bad tab
guest
You may want to rate the tab now too:
select rating
Wanna post a correction for this tab? Suggest correction