Oops, an error
Loading. Please wait.

Lost Your Name tab

700 views 3 this week
no commentswrite comment
1 2 3 4 5
1 last vote to show rating
add to favorites
×
Save as Personal and add changes to this tab that will be seen only by you. Learn more ›
×
You can save this tab as Personal to edit and correct it or add notes. All changes will be seen only by you. Learn more »
launch autoscroll
font size
0
reset
how to read this tab
guitar tuner
edit
Autoscroll
slow
fast
+/-
esc
set tempo
stop
Author
Difficulty
About this tab version
Includes all three guitar parts. Was this info helpful? Yes No
Balance and Composure
"Lost Your Name"

Standard tuning. Corrections welcome!


[Intro]

  G1
e|----------------|
B|----8---8---8---|
G|-/9---9---9---9-|
D|----------------|
A|----------------|
E|----------------|

  G1
e|----------------|----------------|----------------|----------------|
B|----8---8---8---|----1---1---1---|----8---8---8---|----5-----5---5-|
G|-/9---9---9---9\|--2---2---2---2/|--9---9---9---9\|--5---5/7---7---|
D|----------------|----------------|----------------|----------------|
A|----------------|----------------|----------------|----------------|
E|----------------|----------------|----------------|----------------|
 |G2,3                                                                x2
e|----------------|----------------|----------------|----------------|
B|----------------|----------------|----------------|----------------|
G|----------------|----------------|----------------|----------------|
D|3-3-3-3-3-3-3-3-|3-3-3-3/7-7-7-7-|3-3-3-3-3-3-3-3-|3-3-3-3/5-5-5-5-|
A|3-3-3-3-3-3-3-3-|3-3-3-3/7-7-7-7-|3-3-3-3-3-3-3-3-|3-3-3-3/5-5-5-5-|
E|1-1-1-1-1-1-1-1-|1-1-1-1/5-5-5-5-|1-1-1-1-1-1-1-1-|1-0-0-0/3-3-3-3-|


[Verse]

e|----------------|----------------|----------------|----------------|
B|8---8---8---8---|----1---1---1---|8---8---8---8---|----5-----5---5-|
G|--9---9---9---9\|--2---2---2---2/|--9---9---9---9\|--5---5/7---7---|
D|----------------|----------------|----------------|----------------|
A|----------------|----------------|----------------|----------------|
E|----------------|----------------|----------------|----------------|
 |                                                                    x2
e|----------------|----------------|----------------|----------------|
B|----------------|----------------|----------------|----------------|
G|----------------|----------------|----------------|----------------|
D|3-3-3-3-3-3-3-3-|3-3-3-3/7-7-7-7-|3-3-3-3-3-3-3-3-|3-3-3-3/5-5-5-5-|
A|3-3-3-3-3-3-3-3-|3-3-3-3/7-7-7-7-|3-3-3-3-3-3-3-3-|3-3-3-3/5-5-5-5-|
E|1-1-1-1-1-1-1-1-|1-1-1-1/5-5-5-5-|1-1-1-1-1-1-1-1-|1-0-0-0/3-3-3-3-|


[Pre-Chorus]
  G1,2,3
e|--------------------------------|--------------------------------|
B|--------------------------------|--------------------------------|
G|--------------------------------|--------------------------------|
D|----3-3-3---3--/7---7---7---7---|----3-3-3---3--/7---7---7---7---|
A|----3-3-3---3--/7---7---7---7---|----3-3-3---3--/7---7---7---7---|
E|----1-1-1---1--/5---5---5---5---|----1-1-1---1--/5---5---5---5---|


e|--------------------------------|--------------------------------|
B|--------------------------------|--------------------------------|
G|--------------------------------|--------------------------------|
D|----3-3-3---3--/7---7---7---7---|----3-3-3---3---x---x---x-------|
A|----3-3-3---3--/7---7---7---7---|----3-3-3---3---x---x---x-------|
E|----1-1-1---1--/5---5---5---5---|----1-1-1---1---x---x---x-------|


[Verse]

e|----------------|----------------|----------------|----------------|
B|----------------|----------------|----------------|----------------|
G|----------------|----------------|----------------|----------------|
D|3-3-3-3-3-3-3-3-|3-3-3-3/7-7-7-7-|3-3-3-3-3-3-3-3-|3-3-3-3/5-5-5-5-| x2
A|3-3-3-3-3-3-3-3-|3-3-3-3/7-7-7-7-|3-3-3-3-3-3-3-3-|3-3-3-3/5-5-5-5-|
E|1-1-1-1-1-1-1-1-|1-1-1-1/5-5-5-5-|1-1-1-1-1-1-1-1-|1-0-0-0/3-3-3-3-|

  G1
e|----------------|----------------|----------------|----------------|
B|----8---8---8---|----1---1---1---|----8---8---8---|----5-----5---5-|
G|-/9---9---9---9\|--2---2---2---2/|--9---9---9---9\|--5---5/7---7---|
D|----------------|----------------|----------------|----------------|
A|----------------|----------------|----------------|----------------|
E|----------------|----------------|----------------|----------------|
 |G2,3                                                                x2
e|----------------|----------------|----------------|----------------|
B|----------------|----------------|----------------|----------------|
G|----------------|----------------|----------------|----------------|
D|3-3-3-3-3-3-3-3-|3-3-3-3/7-7-7-7-|3-3-3-3-3-3-3-3-|3-3-3-3/5-5-5-5-|
A|3-3-3-3-3-3-3-3-|3-3-3-3/7-7-7-7-|3-3-3-3-3-3-3-3-|3-3-3-3/5-5-5-5-|
E|1-1-1-1-1-1-1-1-|1-1-1-1/5-5-5-5-|1-1-1-1-1-1-1-1-|1-0-0-0/3-3-3-3-|


[Chorus]

e|----------------|----------------|----------------|----------------|
B|--5-5---5-5---5-|5---5-5---5-5---|5-5---5-5---5-5-|--5-5---5-5---5/|
G|5-----5-----5---|--5-----5-----5-|----5-----5-----|5-----5-----5---|
D|----------------|----------------|----------------|----------------|
A|----------------|----------------|----------------|----------------|
E|----------------|----------------|----------------|----------------|
 |
e|----------------|----------------|----------------|----------------|
B|----------------|----------------|----------------|----------------|
G|7-7-7-7-7-7-7-7-|5-5-5-5-5-5-5-5-|5-5-5-5-5-5-5-5-|5-5-5-5-5-5-5-5-|
D|7-7-7-7-7-7-7-7-|5-5-5-5-5-5-5-5-|5-5-5-5-5-5-5-5-|5-5-5-5-5-5-5-5-|
A|5-5-5-5-5-5-5-5-|3-3-3-3-3-3-3-3-|3-3-3-3-3-3-3-3-|3-3-3-3-3-3-3-3-|
E|----------------|----------------|----------------|----------------|


e|----------------|----------------|----------------|----------------|
B|--10--10--10--10|----8---8---8---|8---8---8---8---|8---8---8---8---|
G|12--12--12--12--|12----9---9---9-|--9---9---9---9-|--9---9---9---9-|
D|----------------|----------------|----------------|----------------|
A|----------------|----------------|----------------|----------------|
E|----------------|----------------|----------------|----------------|
 |
e|----------------|----------------|----------------|----------------|
B|----------------|----------------|----------------|----------------|
G|----------------|----------------|----------------|----------------|
D|3-3-3-3-3-3-3-3-|7-7-7-7-7-7-7-7-|7-7-7-7-7-7-7-7-|7-7-7-7-7-7-7-7-|
A|3-3-3-3-3-3-3-3-|7-7-7-7-7-7-7-7-|7-7-7-7-7-7-7-7-|7-7-7-7-7-7-7-7-|
E|1-1-1-1-1-1-1-1-|5-5-5-5-5-5-5-5-|5-5-5-5-5-5-5-5-|5-5-5-5-5-5-5-5-|

  G1,2
e|----------------|----------------|----------------|----------------|
B|----------------|----------------|----------------|----------------|
G|----------------|----------------|----------------|----------------|
D|7---7---7---7--/|10--10--10--10--|10--10--10--10--|10--10--10--10-\|
A|7---7---7---7--/|10--10--10--10--|10--10--10--10--|10--10--10--10-\|
E|5---5---5---5--/|8---8---8---8---|8---8---8---8---|8---8---8---8--\|
 |G3
e|0---0---0---0---|0---0---0---0---|0---0---0---0---|0---0---0---0---|
B|1---1---1---1---|1---1---1---1---|1---1---1---1---|1---1---1---1---|
G|2---2---2---2---|0---0---0---0---|0---0---0---0---|0---0---0---0---|
D|2---2---2---2---|2---2---2---2---|2---2---2---2---|2---2---2---2---|
A|0---0---0---0---|3---3---3---3---|3---3---3---3---|3---3---3---3---|
E|----------------|----------------|----------------|----------------|


e|----------------|----------------|----------------|----------------|
B|----------------|----------------|----------------|----------------|
G|----------------|----------------|----------------|----------------|
D|3---3---3---3--/|12--12--12--12--|12--12--12--12--|12--12--12--12--|
A|3---3---3---3--/|12--12--12--12--|12--12--12--12--|12--12--12--12--|
E|1---1---1---1--/|10--10--10--10--|10--10--10--10--|10--10--10--10--|
 |
e|0---0---0---0---|0---0---0---0---|0---0---0---0---|0---0---0---0---|
B|1---1---1---1---|3---3---3---3---|3---3---3---3---|3---3---3---3---|
G|2---2---2---2---|2---2---2---2---|2---2---2---2---|2---2---2---2---|
D|3---3---3---3---|0---0---0---0---|0---0---0---0---|0---0---0---0---|
A|3---3---3---3---|----------------|----------------|----------------|
E|1---1---1---1---|----------------|----------------|----------------|


e|----------------|----------------|----------------|----------------|
B|----------------|----------------|----------------|----------------|
G|----------------|----------------|----------------|----------------|
D|7---7---7--/10--|10--10--10--10--|10--10--10--10--|10--10--10--10-\|
A|7---7---7--/10--|10--10--10--10--|10--10--10--10--|10--10--10--10-\|
E|5---5---5--/8---|8---8---8---8---|8---8---8---8---|8---8---8---8--\|
 |
e|0---0---0---0---|0---0---0---0---|0---0---0---0---|0---0---0---0---|
B|1---1---1---1---|1---1---1---1---|1---1---1---1---|1---1---1---1---|
G|2---2---2---0---|0---0---0---0---|0---0---0---0---|0---0---0---0---|
D|2---2---2---2---|2---2---2---2---|2---2---2---2---|2---2---2---2---|
A|0---0---0---3---|3---3---3---3---|3---3---3---3---|3---3---3---3---|
E|----------------|----------------|----------------|----------------|


e|----------------|----------------|----------------|----------------|
B|----------------|----------------|----------------|----------------|
G|----------------|----------------|----------------|----------------|
D|3---3---3--/12--|12--12--12--12--|12--12--12--12--|12--12--12--12--|
A|3---3---3--/12--|12--12--12--12--|12--12--12--12--|12--12--12--12--|
E|1---1---1--/10--|10--10--10--10--|10--10--10--10--|10--10--10--10--|
 |
e|0---0---0---0---|0---0---0---0---|0---0---0---0---|0---0---0---0---|
B|1---1---1---3---|3---3---3---3---|3---3---3---3---|3---3---3---3---|
G|2---2---2---2---|2---2---2---2---|2---2---2---2---|2---2---2---2---|
D|3---3---3---0---|0---0---0---0---|0---0---0---0---|0---0---0---0---|
A|3---3---3-------|----------------|----------------|----------------|
E|1---1---1-------|----------------|----------------|----------------|


[Verse]
  G1
e|----------------|----------------|----------------|----------------|
B|----------------|----------------|----------------|----------------|
G|----9b10r9~-----|----------------|----9b10r9~-----|----------------|
D|----------------|----------------|----------------|----------------|
A|----------------|----------------|----------------|----------------|
E|----------------|----------------|----------------|----------------|

  G1
e|----------------|----------------|----------------|----------------|
B|----------------|----------------|----------------|----------------|
G|9---9---9---12--|12--12--12\-2---|---/5-------9---|----9b10r9~-----|
D|----------------|----------------|----------------|----------------|
A|----------------|----------------|----------------|----------------|
E|----------------|----------------|----------------|----------------|
 |G2
e|----------------|----------------|3---------------|----------------|
B|----------------|----------------|5---------------|----------------|
G|----------------|----------------|5---------------|----------------|
D|----------------|----------------|5---------------|----------------|
A|----------------|----------------|----------------|----------------|
E|----------------|----------------|----------------|----------------|


e|----------------|----------------|----------------|----------------|
B|----------------|----------------|----------------|----------------|
G|9---9---9---12--|12--12--12\-2---|---/5-------9---|----9b10r9~-----|
D|----------------|----------------|----------------|----------------|
A|----------------|----------------|----------------|----------------|
E|----------------|----------------|----------------|----------------|
 |
e|0---------------|----------------|3---------------|----------------|
B|1---------------|----------------|5---------------|----------------|
G|2---------------|----------------|5---------------|----------------|
D|2---------------|----------------|5---------------|----------------|
A|0---------------|----------------|----------------|----------------|
E|----------------|----------------|----------------|----------------|


e|----------------|----------------|----------------|----------------|
B|----------------|----------------|10----------8~--|----8~----------|
G|9---9---9---12--|12--12--12\-2---|--------9-------|----------------|
D|----------------|----------------|----------------|----------------|
A|----------------|----------------|----------------|----------------|
E|----------------|----------------|----------------|----------------|
 |
e|3---------------|----------------|0---------------|----------------|
B|5---------------|----------------|1---------------|----------------|
G|5---------------|----------------|2---------------|----------------|
D|5---------------|----------------|2---------------|----------------|
A|----------------|----------------|0---------------|----------------|
E|----------------|----------------|----------------|----------------|


e|----------------|----------------|----------------|----------------|
B|10----------8~--|----------------|----------------|----------------|
G|--------9-------|--------9\------|----9~----------|----9~----------|
D|----------------|----------------|----------------|----------------|
A|----------------|----------------|----------------|----------------|
E|----------------|----------------|----------------|----------------|
 |
e|----------------|----------------|3---------------|----------------|
B|----------------|----------------|5---------------|----------------|
G|----------------|----------------|5---------------|----------------|
D|----------------|----------------|5---------------|----------------|
A|----------------|----------------|----------------|----------------|
E|----------------|----------------|----------------|----------------|


e|----------------|----------------|----------------|----------------|
B|10----------8~--|----------------|10----------8~--|----------------|
G|--------9-------|--------9\------|--------9-------|--------9\------|
D|----------------|----------------|----------------|----------------|
A|----------------|----------------|----------------|----------------|
E|----------------|----------------|----------------|----------------|
 |
e|0---------------|----------------|3---------------|----------------|
B|1---------------|----------------|5---------------|----------------|
G|2---------------|----------------|5---------------|----------------|
D|2---------------|----------------|5---------------|----------------|
A|0---------------|----------------|----------------|----------------|
E|----------------|----------------|----------------|----------------|


e|----------------|----------------|
B|10----------8~--|----------------|
G|--------9-------|--------9\------|
D|----------------|----------------|
A|----------------|----------------|
E|----------------|----------------|
 |
e|0---------------|----------------|
B|1---------------|----------------|
G|2---------------|----------------|
D|2---------------|----------------|
A|0---------------|----------------|
E|----------------|----------------|


[Chorus]
  G1
e|----------------|----------------|----------------|----------------|
B|--5-5---5-5---5-|5---5-5---5-5---|5-5---5-5---5-5-|--5-5---5-5---5/|
G|5-----5-----5---|--5-----5-----5-|----5-----5-----|5-----5-----5---|
D|----------------|----------------|----------------|----------------|
A|----------------|----------------|----------------|----------------|
E|----------------|----------------|----------------|----------------|
 |G2,3
e|----------------|----------------|----------------|----------------|
B|----------------|----------------|----------------|----------------|
G|7-7-7-7-7-7-7-7-|5-5-5-5-5-5-5-5-|5-5-5-5-5-5-5-5-|5-5-5-5-5-5-5-5-|
D|7-7-7-7-7-7-7-7-|5-5-5-5-5-5-5-5-|5-5-5-5-5-5-5-5-|5-5-5-5-5-5-5-5-|
A|5-5-5-5-5-5-5-5-|3-3-3-3-3-3-3-3-|3-3-3-3-3-3-3-3-|3-3-3-3-3-3-3-3-|
E|----------------|----------------|----------------|----------------|


e|----------------|----------------|----------------|----------------|
B|--10--10--10--10|----8---8---8---|8---8---8---8---|8---8---8---8---|
G|12--12--12--12--|12----9---9---9-|--9---9---9---9-|--9---9---9---9-|
D|----------------|----------------|----------------|----------------|
A|----------------|----------------|----------------|----------------|
E|----------------|----------------|----------------|----------------|
 |
e|----------------|----------------|----------------|----------------|
B|----------------|----------------|----------------|----------------|
G|----------------|----------------|----------------|----------------|
D|3-3-3-3-3-3-3-3-|7-7-7-7-7-7-7-7-|7-7-7-7-7-7-7-7-|7-7-7-7-7-7-7-7-|
A|3-3-3-3-3-3-3-3-|7-7-7-7-7-7-7-7-|7-7-7-7-7-7-7-7-|7-7-7-7-7-7-7-7-|
E|1-1-1-1-1-1-1-1-|5-5-5-5-5-5-5-5-|5-5-5-5-5-5-5-5-|5-5-5-5-5-5-5-5-|

 G1,2
e|----------------|----------------|----------------|----------------|
B|----------------|----------------|----------------|----------------|
G|----------------|----------------|----------------|----------------|
D|7---7---7---7--/|10--10--10--10--|10--10--10--10--|10--10--10--10-\|
A|7---7---7---7--/|10--10--10--10--|10--10--10--10--|10--10--10--10-\|
E|5---5---5---5--/|8---8---8---8---|8---8---8---8---|8---8---8---8--\|
 |G3
e|0---0---0---0---|0---0---0---0---|0---0---0---0---|0---0---0---0---|
B|1---1---1---1---|1---1---1---1---|1---1---1---1---|1---1---1---1---|
G|2---2---2---2---|0---0---0---0---|0---0---0---0---|0---0---0---0---|
D|2---2---2---2---|2---2---2---2---|2---2---2---2---|2---2---2---2---|
A|0---0---0---0---|3---3---3---3---|3---3---3---3---|3---3---3---3---|
E|----------------|----------------|----------------|----------------|


e|----------------|----------------|----------------|----------------|
B|----------------|----------------|----------------|----------------|
G|----------------|----------------|----------------|----------------|
D|3---3---3---3--/|12--12--12--12--|12--12--12--12--|12--12--12--12--|
A|3---3---3---3--/|12--12--12--12--|12--12--12--12--|12--12--12--12--|
E|1---1---1---1--/|10--10--10--10--|10--10--10--10--|10--10--10--10--|
 |
e|0---0---0---0---|0---0---0---0---|0---0---0---0---|0---0---0---0---|
B|1---1---1---1---|3---3---3---3---|3---3---3---3---|3---3---3---3---|
G|2---2---2---2---|2---2---2---2---|2---2---2---2---|2---2---2---2---|
D|3---3---3---3---|0---0---0---0---|0---0---0---0---|0---0---0---0---|
A|3---3---3---3---|----------------|----------------|----------------|
E|1---1---1---1---|----------------|----------------|----------------|


e|----------------|----------------|----------------|----------------|
B|----------------|----------------|----------------|----------------|
G|----------------|----------------|----------------|----------------|
D|7---7---7--/10--|10--10--10--10--|10--10--10--10--|10--10--10--10-\|
A|7---7---7--/10--|10--10--10--10--|10--10--10--10--|10--10--10--10-\|
E|5---5---5--/8---|8---8---8---8---|8---8---8---8---|8---8---8---8--\|
 |
e|0---0---0---0---|0---0---0---0---|0---0---0---0---|0---0---0---0---|
B|1---1---1---1---|1---1---1---1---|1---1---1---1---|1---1---1---1---|
G|2---2---2---0---|0---0---0---0---|0---0---0---0---|0---0---0---0---|
D|2---2---2---2---|2---2---2---2---|2---2---2---2---|2---2---2---2---|
A|0---0---0---3---|3---3---3---3---|3---3---3---3---|3---3---3---3---|
E|----------------|----------------|----------------|----------------|


e|----------------|----------------|----------------|----------------|
B|----------------|----------------|----------------|----------------|
G|----------------|----------------|----------------|----------------|
D|3---3---3--/12--|12--12--12--12--|12--12--12--12--|12--12--12--12--|
A|3---3---3--/12--|12--12--12--12--|12--12--12--12--|12--12--12--12--|
E|1---1---1--/10--|10--10--10--10--|10--10--10--10--|10--10--10--10--|
 |
e|0---0---0---0---|0---0---0---0---|0---0---0---0---|0---0---0---0---|
B|1---1---1---3---|3---3---3---3---|3---3---3---3---|3---3---3---3---|
G|2---2---2---2---|2---2---2---2---|2---2---2---2---|2---2---2---2---|
D|3---3---3---0---|0---0---0---0---|0---0---0---0---|0---0---0---0---|
A|3---3---3-------|----------------|----------------|----------------|
E|1---1---1-------|----------------|----------------|----------------|


[Bridge]
  G2
e|----------------|----------------|----------------|----------------|
B|----------------|----------------|----------------|----------------|
G|----------------|----------------|----------------|----------------|
D|3-3-3-3-3-3-3-3-|3-3-3-3/7-7-7-7-|3-3-3-3-3-3-3-3-|3-3-3-3/5-5-5-5-|
A|3-3-3-3-3-3-3-3-|3-3-3-3/7-7-7-7-|3-3-3-3-3-3-3-3-|3-3-3-3/5-5-5-5-|
E|1-1-1-1-1-1-1-1-|1-1-1-1/5-5-5-5-|1-1-1-1-1-1-1-1-|1-0-0-0/3-3-3-3-|

 G1
e|----------------|----------------|----------------|----------------|
B|----------------|----------------|----------------|----------------|
G|----------------|----------------|----------------|----------------|
D|----------------|----------------|----------------|----------------|
A|0///////////////|////////////////|////////////////|//////////////22| Gradually scrape 
E|----------------|----------------|----------------|----------------| pick up the neck
 |G2,3
e|----------------|----------------|----------------|----------------|
B|----------------|----------------|----------------|----------------|
G|----------------|----------------|----------------|----------------|
D|3-3-3-3-3-3-3-3-|3-3-3-3/7-7-7-7-|3-3-3-3-3-3-3-3-|3-3-3-3/5-5-5-5-|
A|3-3-3-3-3-3-3-3-|3-3-3-3/7-7-7-7-|3-3-3-3-3-3-3-3-|3-3-3-3/5-5-5-5-|
E|1-1-1-1-1-1-1-1-|1-1-1-1/5-5-5-5-|1-1-1-1-1-1-1-1-|1-0-0-0/3-3-3-3-|


[Pre-Chorus]
  G1,2,3
e|--------------------------------|--------------------------------|
B|--------------------------------|--------------------------------|
G|--------------------------------|--------------------------------|
D|----3-3-3---3--/7---7---7---7---|----3-3-3---3--/7---7---7---7---|
A|----3-3-3---3--/7---7---7---7---|----3-3-3---3--/7---7---7---7---|
E|----1-1-1---1--/5---5---5---5---|----1-1-1---1--/5---5---5---5---|


e|--------------------------------|--------------------------------|
B|--------------------------------|--------------------------------|
G|--------------------------------|--------------------------------|
D|----3-3-3---3--/7---7---7---7---|----3-3-3---3---x---x---x-------|
A|----3-3-3---3--/7---7---7---7---|----3-3-3---3---x---x---x-------|
E|----1-1-1---1--/5---5---5---5---|----1-1-1---1---x---x---x-------|


[Verse]
 G1,2,3
e|----------------|----------------|----------------|----------------|
B|----------------|----------------|----------------|----------------|
G|----------------|----------------|----------------|----------------|
D|3-3-3-3-3-3-3-3-|3-3-3-3/7-7-7-7-|3-3-3-3-3-3-3-3-|3-3-3-3/5-5-5-5-| x2
A|3-3-3-3-3-3-3-3-|3-3-3-3/7-7-7-7-|3-3-3-3-3-3-3-3-|3-3-3-3/5-5-5-5-|
E|1-1-1-1-1-1-1-1-|1-1-1-1/5-5-5-5-|1-1-1-1-1-1-1-1-|1-0-0-0/3-3-3-3-|

  G1
e|----------------|----------------|----------------|----------------|
B|8---8---8---8---|----1---1---1---|8---8---8---8---|----5-----5---5-|
G|--9---9---9---9\|--2---2---2---2/|--9---9---9---9\|--5---5/7---7---|
D|----------------|----------------|----------------|----------------|
A|----------------|----------------|----------------|----------------|
E|----------------|----------------|----------------|----------------|
 |G2,3                                                                x2
e|----------------|----------------|----------------|----------------|
B|----------------|----------------|----------------|----------------|
G|----------------|----------------|----------------|----------------|
D|3-3-3-3-3-3-3-3-|3-3-3-3/7-7-7-7-|3-3-3-3-3-3-3-3-|3-3-3-3/5-5-5-5-|
A|3-3-3-3-3-3-3-3-|3-3-3-3/7-7-7-7-|3-3-3-3-3-3-3-3-|3-3-3-3/5-5-5-5-|
E|1-1-1-1-1-1-1-1-|1-1-1-1/5-5-5-5-|1-1-1-1-1-1-1-1-|1-0-0-0/3-3-3-3-|


[End]

e|----------------|
B|5~------\---1~--|
G|----------------|
D|----------------|
A|----------------|
E|----------------|
 |
e|----------------|
B|----------------|
G|----------------|
D|7---7---\---3---|
A|7---7---\---3---|
E|5---5---\---1---|



***********************************
| /   Slide up
| \   Slide down
| ~   Vibrato
| x   Dead note
| b   Bend
| r   Release
***********************************

            
            
Suggest correction
Creating personal tab
Creating personal tab
You can edit any tab online and save it as your Personal.

You can edit, replace or remove any tab part or add personal notes – all changes will be seen only by you.

Personal tabs can be accessed anytime from any device, even offline.
Learn more »
Give kudos to tab author, rate the tab!
1 2 3 4 5
comments
print report bad tab
guest
You may want to rate the tab now too:
select rating
Wanna post a correction for this tab? Suggest correction